Cifra Club

Eternas Ondas

Zé Ramalho

Cifrado: Principal (guitarra y guitarra eléctrica)
tono: D
[Intro] E  G#  D#m7(5-)  G#  C#m

[Riff]

E|------------------------------------------|
B|------------------------------------------|
G|------------------------------------------|
D|------------------------------------------|
A|-------------4--7---4---------------------|
E|-----4----7-------------------------------|
                              
 F#m                             G#              C#m  F#m
Quanto tempo temos antes de voltarem aquelas ondas
                            B               C#m  E
Que vieram como gotas em silêncio   tão furioso 
                            G#        D#m7(5-)
Derrubando homens entre outros animais
              G#              C#m    F#m
Devastando a sede desses matagais 
                         G#
Devorando árvores, pensamentos seguindo
   C#m    F#m                                B               C#m  E
A linha     do que foi escrito pelo mesmo lábio    tão furioso
                              G#      D#m7(5-)
E se teu amigo vento não te procurar
             G#               C#m      E
É porque multidões ele foi arrastar 
                              G#  D#m7(5-)  G#  A  Bb°  G#  G#7  C#m
E se teu amigo vento oo ooo  

[Riff]

E|------------------------------------------|
B|------------------------------------------|
G|------------------------------------------|
D|------------------------------------------|
A|-------------4--7---4---------------------|
E|-----4----7-------------------------------|
Composición de Zé Ramalho
Colaboración y revisión:
2.028 vistas
    • ½ Tono
    • A
    • Bb
    • B
    • C
    • Db
    • D
    • Eb
    • E
    • F
    • F#
    • G
    • Ab
  • Agregar a la lista

    0 comentarios

    Ver todos los comentarios

    ¿Lograste tocar?

    20 Tocaron 3 Aún no

    ¡Graba un video tocando Eternas Ondas y envíanoslo!

    00:00 / 00:00
    Outros vídeos desta música
    Repetir Calidad Automático
    Outros vídeos desta música
    00:00 / 00:00
    Automático
    OK