Cifra Club

Eternas Ondas

Zé Ramalho

Cifrado: Principal (guitarra y guitarra eléctrica)
Selo Cifra Club: esta cifra foi revisada para atender aos critérios oficiais da nossa Equipe de Qualidade.
tono: D
[Intro] E  G#  D#m7(5-)  G#  C#m

[Tab - Intro]

E|---2-2-4-2-4-2-4-2-4-2-2-0----2-2-2-2-2-4-|
B|---------------------------4--------------|
G|------------------------------------------|
D|------------------------------------------|
A|------------------------------------------|
E|------------------------------------------|

E|---4-4-0----------------------------------|
B|---------4-2------------------------------|
G|------------------------------------------|
D|------------------------------------------|
A|---------------------4-7-4----------------|
E|-----------------4-7----------------------|

 F#m                             G#              C#m  F#m
Quanto tempo temos antes de voltarem aquelas ondas
                            B               C#m  E
Que vieram como gotas em silêncio   tão furioso
                            G#        D#m7(5-)
Derrubando homens entre outros animais
              G#              C#m    F#m
Devastando a sede desses matagais
                         G#
Devorando árvores, pensamentos seguindo
   C#m    F#m                                B               C#m  E
A linha     do que foi escrito pelo mesmo lábio    tão furioso
                              G#      D#m7(5-)
E se teu amigo vento não te procurar
             G#               C#m      E
É porque multidões ele foi arrastar
                              G#  D#m7(5-)  G#  A  Bb°  G#  G#7  C#m
E se teu amigo vento oo oooo

[Riff]

E|------------------------------------------|
B|------------------------------------------|
G|------------------------------------------|
D|------------------------------------------|
A|-------------4--7---4---------------------|
E|-----4----7-------------------------------|
Otros videos de esta canción
    2.684 exhibiciones
      • ½ Tono
      • A
      • Bb
      • B
      • C
      • Db
      • D
      • Eb
      • E
      • F
      • F#
      • G
      • Ab
    • Agregar a la lista

    Afinação da cifra

    Afinador online

      Ops (: Contenido disponible solo en portugués.
      OK