Cifra Club

Era Domingo

Zeca Baleiro

Chords: Principal (acoustic and electric guitars)
tone: C
Intro 2x: C C/Bb Am7 F/Ab 

(Riff 1)
   C    C/Bb Am7  F/Ab
E|---3----3----3----3--|2
B|--5-5--5-5--5-5--5-5-|v
G|-5----3----2----1----|e
D|---------------------|z
A|---------------------|e
E|---------------------|s

(Guitarra 2)
   C    C/Bb Am7  F/Ab   C    C/Bb Am7  F/Ab
E|-----------------------------------------|
B|-------------------13\-------------------|
G|---/12~~~~-------------/9~~~~------------|
D|-----------------------------------------|
A|-----------------------------------------|
E|-----------------------------------------|
 
C       C/Bb*         Am7
 Era domingo, era do mundo
            F/Ab*
Meu olhar perplexo
C         C/Bb          Am7
 Na voz navalha, vida migalha
           F/Ab
E eu quero mais que isso
C       C/Bb         Am7
 Toda beleza na fortaleza
           F/Ab
D'um céu cheio de azuis
C       C/Bb        Am7
 Música bela pela janela
      F/Ab
Soava feito blues

(Refrão)
Am  Am/G   D/F#
  E eu tão só
         C/E*
Tão sem ninguém
     Ebº*
Em meio 

(Riff 2)
   Dm7     E7/G#
E|---------------------|
B|-----6---------------|
G|-7-9--7------4-------|
D|---------6-7--6------|
A|---------------------|
E|---------------------|

   Dm7*  E7/G#*  Am
Ao pó da multidão

   Am/G    D/F#
Na boca um doce 
  *  C/E**    Ebº
Amargo travo eu livre

(Riff 2)

   Dm7  E7/G#
Escravo da paixão 

C          C/Bb           Am7
 Raiava o dia e as três Marias
           F/Ab
Triste constelação
C        C/Bb             Am7
 Naquela hora reféns da aurora
          F/Ab
Com o meu coração

(Refrão)
Am  Am/G   D/F#
  E eu tão só
         C/E
Tão sem ninguém
     Ebº
Em meio 

(Riff 2)

   Dm7   E7/G#    Am
Ao pó da multidão

   Am/G    D/F#
Na boca um doce 
     C/E      Ebº
Amargo travo eu livre

(Riff 2)

   Dm7   E7/G#
Escravo da paixão 

(C C/Bb Am7 F/Ab) (4 vezes)

(Riff 3)
   C    C/Bb Am7  F/Ab
E|-8----6----5----4----|4
B|---5----5----5----5--|v
G|--5-5--5-5--5-5--5-5-|e
D|---------------------|z
A|---------------------|e
E|---------------------|s

(Refrão)
Am  Am/G   D/F#
  E eu tão só
         C/E
Tão sem ninguém
     Ebº
Em meio 

(Riff 2)
   Dm7   E7/G#     Am
Ao pó da multidão



   Am/G    D/F#
Na boca um doce 
     C/E     Ebº
Amargo travo eu livre
 
(riff 2)
   Dm7   E7/G#
escravo da paixão 

C       C/Bb          Am7
 Era domingo, era do mundo
            F/Ab
Meu olhar perplexo
C         C/Bb          Am7
 Na voz navalha, vida migalha
           F/Ab
E eu quero mais que isso

(riff 1)
C       C/Bb         Am7
 Toda beleza na fortaleza
           F/Ab
D'um céu cheio de azuis
C       C/Bb        Am7
 Música bela pela janela
      F/Ab
Soava feito blues

C       C/Bb          Am7   F/Ab
 Era domingo, era do mundo
C       C/Bb          Am7   F/Ab
 Era domingo, era do mundo
C       C/Bb          Am7   F/Ab
 Era domingo, era do mundo

C       C/Bb   Am7   F/Ab  C
 Era domingo.

OBS: Montar acordes com (*)
C/Bb = x1x010
F/Ab = 4x356x
C/E* = 0xx010
Ebº = x6757x
Dm7 = x57565
E7/G# = 4x243x
Fº = xx3434
C/E** = x7558x
00:00 / 00:00
Other videos of this song
Repeat
Other videos of this song
Composed by Zeca Baleiro
Collaboration and Review:
  • Aliedson Lima
121 views
    • ½ Tone
    • A
    • Bb
    • B
    • C
    • Db
    • D
    • Eb
    • E
    • F
    • F#
    • G
    • Ab
  • Add to list
    00:00 / 00:00
    OK