Cifra Club

Ainda é tempo de ser feliz

Zeca Pagodinho

Cifrado: Principal (guitarra y guitarra eléctrica)
tono: C
[Intro] C7M  D/C  Bm9  E7(9-)  
        Am7  D4(9)  G7M  D9-

[Solo]

E|-----------------------------------------|
B|------------------------1-5-5-3-3-2-3----|
G|-------4-4--2-2-0-2---2------------------|
D|-2--5------------------------------------|
A|-----------------------------------------|
E|-----------------------------------------|

E|---5--9-9-7-7-5-5----------7-5-----------|
B|-5----------------7-7-5-7------7-6-5-6-5-|
G|-----------------------------------------|
D|-----------------------------------------|
A|-----------------------------------------|
E|-----------------------------------------|

C7M                   Cm6        Bm7    Dm6/F     E7(4)   E7
  Me cansei de ficar mudo sem tentar,       sem falar
C7M                    Cm6      B13   B7M   E7(9-)   E7
Mas não posso deixar tudo como está  Como está você?
                C7M                    Cm6
Tô vivendo por viver, tô cansada de chorar
                Bm7               E7(4)          E7
Não sei mais o que fazer, você tem que me ajudar
        C7M            Bm7    C7M     B7M   Em9
Tá difícil esquecer, impossível não lembrar vocêêê
    Dm7           G13
E você como está?
               C#m7(5-)                   D/F#
Com o fim do nosso amor, eu também tô por aí
               Bm7              Bm7(5-)        E9-        
Eu não sei pra onde vou, tantas noites sem dormir
     Am7      Bm7      C7M        D9      G7M
Alivia minha dor, e me faça por favor   sorrir

[Refrão]

Dm7           G13      C7M    D/C            G7M  G9
Vem pros meus braços meu amor, meu acalanto 
            C7M        D/C          Bm7(5-)  G7(9)
Leva esse pranto pra bem longe de nós dois        
           C7M        D/C        Bm7(5-)       E7
Não deixe nada pra depois, é a saudade que me diz
            Am7       D7(9)     G7M       D9-
Que ainda é tempo pra viver feliz
Composición de Arlindo Cruz
1.226 vistas
    • ½ Tono
    • A
    • Bb
    • B
    • C
    • Db
    • D
    • Eb
    • E
    • F
    • F#
    • G
    • Ab
  • Agregar a la lista

    0 comentarios

    Ver todos los comentarios

    ¿Lograste tocar?

    3 Tocaron 2 Aún no

    ¡Graba un video tocando Ainda é tempo de ser feliz y envíanoslo!

    00:00 / 00:00
    Otros videos de esta canción
    Repetir Calidad Automático
    Otros videos de esta canción
    00:00 / 00:00
    Automático
    OK