Cifra Club

Salvame

Zen

Cifrado: Principal (guitarra y guitarra eléctrica)
tono: C
 Intro y Estrofa


E|-------------------|
B|--11--11--11--1100-|
G|--22--22--22--2211-| (D PETIR TANTAS VECES SEA)
D|--22--22--22--2222-|
A|--00--00--00--0022-|
E|-------------------|



 Coro


   SACAME DE AQUI...
E|-----------------------|
B|-----------------------|
E|-----------------------|



 Solo


 E----17--15-----------15-----17-19-20-22-20-19-17-19-15--22-
 B--17--15--13-17-12-15-----17--------------------------17---
 G-----------------------------------------------------------
 D-----------------------------------------------------------
 A-----------------------------------------------------------
E|-----------------------|------------------------------------
00:00 / 00:00
Otros videos de esta canción
Repetir
Otros videos de esta canción
Compositor no encontrado.
1 vistas
    • ½ Tono
    • A
    • Bb
    • B
    • C
    • Db
    • D
    • Eb
    • E
    • F
    • F#
    • G
    • Ab
  • Agregar a la lista

    0 comentarios

    Ver todos los comentarios

    ¿Lograste tocar?

    0 Tocaron 0 Aún no

    ¡Graba un video tocando Salvame y envíanoslo!

    00:00 / 00:00
    OK