Cifra Club

Maria Vai Com as Ondas

Zéu Britto

Cifrado: Principal (guitarra y guitarra eléctrica)
tono: D
(intro)

     D                                        D
E|-------5------3------2-----0-----0--...
B|------------------------------------
G|----------2------2------2-----2-----...
D|-0--0-------------------------------
A|------------------------------------
E|------------------------------------

      D                                       A
E|------------------------------------
B|-3----------2--------3--------3-----...
G|----2----------2--------2--------2--...
D|--------0---------0--------0--------...
A|------------------------------------
E|------------------------------------

(solo mais simplificado)

E|-----12-10-9-7-7---5-4--5-5---|------12-10-9-7-7---5-4--5-5--|
B|10-10-------------------------|-10-10------------------------|

D                G
Maria vai com as ondas
D                  G
E a onda leva a vaidade
                      A
Leva o pente e a maquiagem
              D       A
O CPF e identidade

D                G
Maria vai com as ondas
D                G
E a onda leva as botas
                   A
Leva a ceda a superfície
                   D     D  A/C#  Bm
O isqueiro e as berlotas

(refrão)
Bm         F#m    G
Maria se jogou no mar
                 A
Subiu num barco alheio
                   Bm     A
e foi parar em Tapariga

Bm          F#m   G
Maria se sentiu legal
                A
E bebeu agua do mar
                   Bm     A
pra combater sua larica

D                G
Maria vai com as ondas
D                G
E a onda leva a monga
                 A
Leva a pera o abacate
                 D      A
A melancia e a pitanga

D                G
Maria vai com as ondas
D                G
E a onda leva a torta
                A
Leva a sopa de abobora
              D      A
O cucuz e a ricota

(solo 1 & 2 - mesma base do refrão 4x)

D                G
Maria vai, Maria vai
D                G
Maria Maria...
00:00 / 00:00
Otros videos de esta canción
Repetir
Otros videos de esta canción
Composición de Zéu Britto
Colaboración y revisión:
  • Ricardo Lima
  • Renato Mestre
44 vistas
    • ½ Tono
    • A
    • Bb
    • B
    • C
    • Db
    • D
    • Eb
    • E
    • F
    • F#
    • G
    • Ab
  • Agregar a la lista

    0 comentarios

    Ver todos los comentarios

    ¿Lograste tocar?

    2 Tocaron 0 Aún no

    ¡Graba un video tocando Maria Vai Com as Ondas y envíanoslo!

    00:00 / 00:00
    OK