Cifra Club

Brigue Comigo, Mas Não Vá

Zezé Di Camargo e Luciano

Tablatura: Principal (guitarra)
tono: F# (con acordes en la forma de F) Capotraste na 1ª casa
[Intro] Gm  C  Am  Dm 
        Gm  C  F  A#  F

E|----------10-9----9-10-12-13-12-13--15-12-15-13-12-15-----------12-15-13-13-|
B|---------------12--------------------------------------13-13--15-------------|
G|-----------------------------------------------------------------------------|
D|-10-11-12--------------------------------------------------------------------|
A|-----------------------------------------------------------------------------|
E|-----------------------------------------------------------------------------|

E|-------12-------13-------------------15-12-12-----------12-15-13-12-15-12--|
B|-13-15----15-13----15-15-----------------------13-13--15--------------------|
G|-------------------------15-15-12-12----------------------------------------|
D|----------------------------------------------------------------------------|
A|----------------------------------------------------------------------------|
E|----------------------------------------------------------------------------|
     F
Eu sei que entre nós ainda tem jeito 
                                           C
Vem pra perto do meu peito, vem ouvir meu coração 
 
"Brigar" - qualquer casal que ama briga 
                    A#                      F
E não é por uma intriga que se acaba uma paixão 
 
Você já fez a mala pôs na porta 
                       F7                         A#
Diz que agora não tem volta, nosso amor tem que acabar 
                            F
Te juro não mereço este castigo 
                   C
Pode até brigar comigo 
                      F   A#  F
Mas te peço amor não va ! 
   
                      C
Brigue comigo mas não vá amor 
                   F
Eu morreria sem você aqui 
                          C
Meu mundo é triste sem o seu calor 
A#                      F       A#  F
Brigue comigo mas não vá amor 
                        C
Brigue comigo mas não vá amor 
                    F
Eu não conseguiria te esquecer 
                            C
Sem teu carinho eu sei que vou chorar 
A#                  F
Brigue comigo mas não vá 

[Solo] Gm  C  Am  Dm 
       Gm  C  F  A#  F 
 
    F
Momentos que vivemos tão felizes 
                                     C
Valem todos os deslizes que a gente cometeu 
 
Por isso é que eu te peço não me deixe 
                    A#                       F
Mesmo que você se queixe, diga que me compreendeu 
 
Quem ama de verdade tem ciúme 
                        F7                  A#
E não há o que me acostume ser feliz sem te amar 

                               F
Escute por favor o que eu lhe digo 
                   C
Pode até brigar comigo 
              F            A#  F
Mas te peço amor não vá! 
 
                       C
Brigue comigo mas não vá amor 
                   F
Eu morreria sem você aqui 
                          C
Meu mundo é triste sem o seu calor 
A#                      F       A#  F
Brigue comigo mas não vá amor 
                      C
Brigue comigo mas não vá amor 
                    F
Eu não conseguiria te esquecer 
                            C
Sem teu carinho eu sei que vou chorar 
A#                  F
Brigue comigo mas não vá

                       C
Brigue comigo mas não vá amor 
                   F
Eu morreria sem você aqui 
                          C
Meu mundo é triste sem o seu calor 
A#                      F       A#  F
Brigue comigo mas não vá amor 
                      C
Brigue comigo mas não vá amor 
                    F
Eu não conseguiria te esquecer 
                            C
Sem teu carinho eu sei que vou chorar 
A#                  F
Brigue comigo mas não vá

[Solo] Gm  C  Am  Dm 
       Gm  C  F  A#  F
Colaboración y revision:
569 reproducciones
    • ½ Tono
    • A
    • Bb
    • B
    • C
    • Db
    • D
    • Eb
    • E
    • F
    • F#
    • G
    • Ab
  • Adicionar à lista

    0 comentarios

    Ver todos os comentários

    ¿Conseguiste tocar?

    2 Tocaram 0 Ainda não

    Grave um vídeo tocando Brigue Comigo, Mas Não Vá e nos envie!

    00:00 / 00:00
    outros vídeos desta música
    repetir qualidade Automático
    Outros vídeos desta música
    00:00 / 00:00
    Automático
    OK