Cifra Club

É o Amor

Zezé Di Camargo & Luciano

Cifrado: Principal (guitarra y guitarra eléctrica)
Selo Cifra Club: esta cifra foi revisada para atender aos critérios oficiais da nossa Equipe de Qualidade.
tono: B
[Intro] E  B  F#7  B  F#7

[Tab - Solo Intro]

E|----12p11-12p11-12--11-12--12-12-12-------|
B|-12---------------------------------------|
G|------------------------------------------|
D|------------------------------------------|
A|------------------------------------------|
E|------------------------------------------|

E|------------------------------------------|
B|-14/16-16--12p11-12p11-12--12-12-12-------|
G|------------------------------------------|
D|------------------------------------------|
A|------------------------------------------|
E|------------------------------------------|

E|------------------------------------------|
B|-12/14p12-11--14-12-14-12-14--------------|
G|------------------------------------------|
D|------------------------------------------|
A|------------------------------------------|
E|------------------------------------------|

E|----------12--11--------------------------|
B|-12-14-12--------12-----------------------|
G|------------------------------------------|
D|------------------------------------------|
A|------------------------------------------|
E|------------------------------------------|

[Primeira Parte]

    B                       
Eu não vou negar que sou louco por você
                                    F#7
Tô maluco pra te ver, eu não vou negar
    C#m                  C#m/B        F#7
Eu não vou negar, sem você tudo é saudade
                 C#m7              
Você traz felicidade
F#               B  C#m  F#  
   Eu não vou negar
    B
Eu não vou negar, você é meu doce mel
       B7                         E  
Meu pedacinho de céu, eu não vou negar

[Pré-Refrão]

                            
Você é minha doce amada
           B
Minha alegria, meu conto de fada
            C#m7                    
Minha fantasia
                 F#7             B  B7
A paz que eu preciso pra sobreviver
    E                                    B
Eu sou o seu apaixonado, de alma transparente
                                 C#m7 
Um louco alucinado meio inconsequente
               F#7       B 
Um caso complicado de se entender

[Refrão]

      E                                          
É o amor, que mexe com a minha cabeça 
              B
E me deixa assim
     
Que faz eu pensar em você 
            F#7
E esquecer de mim
     C#m7                  F#7 
Que faz eu esquecer que a vida 
               B  B7
É feita pra viver
      E                             
É o amor
                                        B
Que veio como um tiro certo no meu coração
                                       F#7
Que derrubou a base forte da minha paixão
     C#m7                  F#7             B   C#m  F#
Que fez eu entender que a vida é nada sem você

[Ponte]

    B
Eu não vou negar, você é meu doce mel
                     D#°             E
Meu pedacinho de céu,    eu não vou negar

[Pré-Refrão]

                            
Você é minha doce amada
           B
Minha alegria, meu conto de fada
            C#m7                    
Minha fantasia
                 F#7             B  B7
A paz que eu preciso pra sobreviver
    E                                    B
Eu sou o seu apaixonado, de alma transparente
                               C#m7 
Um louco alucinado meio inconsequente
               F#7       B        B7
Um caso complicado de se entender

[Refrão]

      E                                          
É o amor, que mexe com a minha cabeça 
              B
E me deixa assim
    
Que faz eu pensar em você 
               F#7
E esquecer de mim
     C#m7                  F#7 
Que faz eu esquecer que a vida 
               B  B7
É feita pra viver
      E                             
É o amor
                                        B
Que veio como um tiro certo no meu coração
                                       F#7
Que derrubou a base forte da minha paixão
     C#m7           
Que fez eu entender 
       F#7             B   
Que a vida é nada sem você
Otros videos de esta canción
    36.128 exhibiciones
    • Simplificar cifrado
      • ½ Tono
      • A
      • Bb
      • B
      • C
      • Db
      • D
      • Eb
      • E
      • F
      • F#
      • G
      • Ab
    • Agregar a la lista

    Afinação da cifra

    Afinador online

      Ops (: Contenido disponible solo en portugués.
      OK