Cifra Club

Flores Em Vida

Zezé Di Camargo e Luciano

Cifrado: Principal (guitarra y guitarra eléctrica)
Já pensou em usar uma coleção de roupas do Cifra Club? Responda as perguntas abaixo e nos ajude nessa missão! →
tono: Bbm (con acordes en la forma de Gm) Capotraste en 3ª casa
[Intro] Am  C  G  D
        Am  C  G  D

Solo Intro - (o violão que toca o solo não usa capo)

Parte 1

E|------------------------------------------------------|
B|---8p6-8~----8p6-6~--11\6~--11\6~---------------------|
G|-5---------5------------------------------------------|
D|------------------------------------------------------|
A|------------------------------------------------------|
E|------------------------------------------------------|

Parte 2

E|------------------------------------------------------|
B|---8p6-8p6-8~----8p6-8~--11\6~--10h11p10--------------|
G|-5-------------5--------------------------------------|
D|------------------------------------------------------|
A|------------------------------------------------------|
E|------------------------------------------------------|

[Primeira Parte]

                Am
Quero seu amor agora
  C               G    D
  Não a saudade depois
                        Am
Seu carinho pela vida afora
             C          G          D(pausa)
Antes que o fim pare entre nós dois

                 Am
Quero sua companhia
C                  G         D
  Caminhar na mesma   direção
                      Am
É certo que um certo dia
                C           G       D
A vida nos separe em alguma estação

                 Am  C
Quero flores em vida
                   G      D
Seu sorriso a me iluminar
                     Am
As lágrimas de despedida
                 C        G        D (batidas 8x)
Não estarei por perto pra enxugar

[Refrão]

Am        C        G
Eu quero viver a vida
        D        Am
Quero flores em vida
    C           G           D
Colhidas no jardim do amor

Am        C       G
Eu quero viver a vida
        D        Am
Quero flores em vida
    C           G          D (pausa)
Colhidas no jardim do amor

Do nosso amor

Repete Intro 2x: Am  C  G  D

                 Am  C
Quero flores em vida
                   G      D
Seu sorriso a me iluminar
                     Am
As lágrimas de despedida
                 C        G       D (batidas 8x)
Não estarei por perto pra enxugar

[Refrão]

Am        C       G
Eu quero viver a vida
        D        Am
Quero flores em vida
    C           G          D
Colhidas no jardim do amor

Am(1x)    C(1x)   B(1x)
Eu quero viver a vida
        D (b.8x) Am
Quero flores em vida
    C           G          D
Colhidas no jardim do amor
           Am  C   Em  D
Do nosso amor
           Am  C   G
Do nosso amor
           D  (final)
Do nosso amor

[Final]

E|------------------------------------------------------|
B|------------------------------------------------------|
G|------------------------------------------------------|
D|------------------------------------------------------|
A|-3-2-0------------------------------------------------|
E|------------------------------------------------------|
Composición de Alberto Araújo / Felipe Duran
6.120 vistas
  • Simplificar cifrado
    • ½ Tono
    • Am
    • Bbm
    • Bm
    • Cm
    • C#m
    • Dm
    • Ebm
    • Em
    • Fm
    • F#m
    • Gm
    • G#m
  • Agregar a la lista

    0 comentarios

    Ver todos los comentarios
    00:00 / 00:00
    Outros vídeos desta música
    Repetir Calidad Automático
    Outros vídeos desta música
    00:00 / 00:00
    Automático
    Capítulos
    • Tocando a música
    • Dicas Iniciais
    • Acordes da música
    • Tocando Introdução
    • Ritmo da música
    • Dicas 1
    • Tocando Preparação Refrão
    • Dicas 2
    • Tocando Repetição - Final
    • Ensinando Final
    • Dicas 3
    • Tocando Solo Introdução
    • Solo Introdução - Parte 1 de 2
    • Solo Introdução - Parte 2 de 2
    • Encerramento
    • Ficha técnica
    OK