Cifra Club

Pão de Mel

Zezé Di Camargo e Luciano

Cifrado: Principal (guitarra y guitarra eléctrica)
tono: E
[Intro] E  B7  A  B7

[Violão 1]

E|------------------------------------------|
B|-9---------------12-12-12--10-10-10--9-9-9|
G|---11-9-11-11/13--------------------------|
D|------------------------------------------|
A|------------------------------------------|
E|------------------------------------------|

E|------------------------------------------|
B|-----------------------10-10-10--9-9-9----|
G|-11-11-11--9-8-9-9/11---------------------|
D|------------------------------------------|
A|------------------------------------------|
E|------------------------------------------|

E|------------------------------------------|
B|------------------------------------------|
G|-11-11-11-9-9-9-8----8-8h9----------------|
D|------------------11----------------------|
A|------------------------------------------|
E|------------------------------------------|

E|------------------------------------------|
B|-9-9-9--7-7-7-----------------------------|
G|---------------9-9-9-8----11-9-8-9-11-----|
D|-----------------------11-----------------|
A|------------------------------------------|
E|------------------------------------------|

E|------------------------9-12-11-9-9-------|
B|-9-10-9-10-9----9-10-12-------------------|
G|-------------11---------------------------|
D|------------------------------------------|
A|------------------------------------------|
E|------------------------------------------|

E|------------------------------------------|
B|-12-12-10-10-9-9--------------------------|
G|-----------------11-11-9-8----------------|
D|---------------------------11-9-----------|
A|--------------------------------12-11-----|
E|------------------------------------------|

[Violão 2]

E|------------------------------------------|
B|--------------9-9-9--7-7-7----------------|
G|---------------------------9-9-9--8-8-8---|
D|-9--7-6-7-7/9-----------------------------|
A|------------------------------------------|
E|------------------------------------------|

E|------------------------------------------|
B|------------7-7-7-------------------------|
G|-6---6-6/8--------9-9-9--8-8-8--6-6-6-----|
D|---9--------------------------------------|
A|------------------------------------------|
E|------------------------------------------|

E|------------------------------------------|
B|------------------------------------------|
G|-------------9-9-9--8-8-8--6-6-6-----8-6--|
D|-9-7-9-9/11----------------------9-7------|
A|------------------------------------------|
E|------------------------------------------|

E|-----------------------------9-7----------|
B|---------7---7-------7-9--10--------------|
G|---6-8-9---9---9-8-9----------------------|
D|-9----------------------------------------|
A|------------------------------------------|
E|------------------------------------------|

E|------------------------------------------|
B|-10-10-9-9-7-7----------------------------|
G|---------------9-9-8-8-6------------------|
D|-------------------------9-7-6------------|
A|-------------------------------9-7--------|
E|------------------------------------------|

[Primeira Parte]

   E                              B7
Você é minha luz, estrada, meu caminho
                          A
Sem você não sei andar sozinho
                         B7
Sou tão dependente de você
  E                              B7
Chama que alimenta o fogo da paixão
                          A
Chuva que molhou meu coração
                         B7  
Sou tão dependente de você

[Pré-Refrão]

         F#m             A
Vem meu céu, meu pão de mel
             E  
Meu bem, querer
         F#m             A
Vem meu céu, meu pão de mel
            E   B7
Meu bem querer

[Refrão]

E                                B7         
Ai, ai, ai, ai, ai, esse amor é bom demais
F#m             B7                E
Ai, ai, ai, ai, ai, esse amor marcou demais
                                 B7         
Ai, ai, ai, ai, ai, esse amor ficou em mim
F#m             B7                 E          
Ai, ai, ai, ai, ai, esse amor não vai ter fim

[Solo] E  B7  A  B7

[Violão 1]

E|------------------------------------------|
B|-9---------------12-12-12--10-10-10--9-9-9|
G|---11-9-11-11/13--------------------------|
D|------------------------------------------|
A|------------------------------------------|
E|------------------------------------------|

E|------------------------------------------|
B|-----------------------10-10-10--9-9-9----|
G|-11-11-11--9-8-9-9/11---------------------|
D|------------------------------------------|
A|------------------------------------------|
E|------------------------------------------|

E|------------------------------------------|
B|------------------------------------------|
G|-11-11-11-9-9-9-8----8-8h9----------------|
D|------------------11----------------------|
A|------------------------------------------|
E|------------------------------------------|

E|------------------------------------------|
B|-9-9-9--7-7-7-----------------------------|
G|---------------9-9-9-8----11-9-8-9-11-----|
D|-----------------------11-----------------|
A|------------------------------------------|
E|------------------------------------------|

E|------------------------9-12-11-9-9-------|
B|-9-10-9-10-9----9-10-12-------------------|
G|-------------11---------------------------|
D|------------------------------------------|
A|------------------------------------------|
E|------------------------------------------|

E|------------------------------------------|
B|-12-12-10-10-9-9--------------------------|
G|-----------------11-11-9-8----------------|
D|---------------------------11-9-----------|
A|--------------------------------12-11-----|
E|------------------------------------------|

[Violão 2]

E|------------------------------------------|
B|--------------9-9-9--7-7-7----------------|
G|---------------------------9-9-9--8-8-8---|
D|-9--7-6-7-7/9-----------------------------|
A|------------------------------------------|
E|------------------------------------------|

E|------------------------------------------|
B|------------7-7-7-------------------------|
G|-6---6-6/8--------9-9-9--8-8-8--6-6-6-----|
D|---9--------------------------------------|
A|------------------------------------------|
E|------------------------------------------|

E|------------------------------------------|
B|------------------------------------------|
G|-------------9-9-9--8-8-8--6-6-6-----8-6--|
D|-9-7-9-9/11----------------------9-7------|
A|------------------------------------------|
E|------------------------------------------|

E|-----------------------------9-7----------|
B|---------7---7-------7-9--10--------------|
G|---6-8-9---9---9-8-9----------------------|
D|-9----------------------------------------|
A|------------------------------------------|
E|------------------------------------------|

E|------------------------------------------|
B|-10-10-9-9-7-7----------------------------|
G|---------------9-9-8-8-6------------------|
D|-------------------------9-7-6------------|
A|-------------------------------9-7--------|
E|------------------------------------------|

[Primeira Parte]

   E                              B7
Você é minha luz, estrada, meu caminho
                          A
Sem você não sei andar sozinho
                         B7
Sou tão dependente de você
  E                              B7
Chama que alimenta o fogo da paixão
                          A
Chuva que molhou meu coração
                         B7  
Sou tão dependente de você

[Pré-Refrão]

         F#m             A
Vem meu céu, meu pão de mel
             E  
Meu bem, querer
         F#m             A
Vem meu céu, meu pão de mel
            E   B7
Meu bem querer

[Refrão]

E                                B7         
Ai, ai, ai, ai, ai, esse amor é bom demais
F#m             B7                E
Ai, ai, ai, ai, ai, esse amor marcou demais
                                 B7         
Ai, ai, ai, ai, ai, esse amor ficou em mim
F#m             B7                 E          
Ai, ai, ai, ai, ai, esse amor não vai ter fim

                                 B7         
Ai, ai, ai, ai, ai, esse amor ficou em mim
F#m             B7                 E          
Ai, ai, ai, ai, ai, esse amor não vai ter fim
                                 B7         
Ai, ai, ai, ai, ai, esse amor ficou em mim
F#m             B7                 E          
Ai, ai, ai, ai, ai, esse amor não vai ter fim

       A       B7      E  E7
Esse amor não vai ter fim
       A       B7      E
Esse amor não vai ter fim
Composición de Zezé Di Camargo
Colaboración y revisión:
  • Thiago Almeida
  • José Oliveira
  • Guilherme Carvalho
5.302 vistas
  • Simplificar cifrado
    • ½ Tono
    • A
    • Bb
    • B
    • C
    • Db
    • D
    • Eb
    • E
    • F
    • F#
    • G
    • Ab
  • Agregar a la lista

    0 comentarios

    Ver todos los comentarios
    00:00 / 00:00
    Outros vídeos desta música
    Repetir Calidad Automático
    Outros vídeos desta música
    00:00 / 00:00
    Automático
    OK