Cifra Club

Caipira

Zezeu Rossett

Cifrado: Principal (guitarra y guitarra eléctrica)
tono: A
Intro:
                                                                               D
E|--4/5-5-5-5-4-2-----5---4/5-5-5-4-2-0-----5---4-5-5-5-4---0-2-2-2-0---0-2-0-0---|
B|--5/9-9-9-9-5-3-3/5-----5/9-9-9-5-3-2-3/5-----5-9-9-9-5---2-3-3-3-2---0-3-2-0---|
G|--------------------------------------------------------------------------------|
D|--------------------------------------------------------------------------------|
A|--------------------------------------------------------------------------------|
E|--------------------------------------------------------------------------------|

     D               F#m         G      A        D
O que eu visto não é linho, ando até de pés no chão
   Bm                 F#m     G              D
E o cantar de um passarinho, é pra mim uma canção
  G                    D        E7           A
Vivo com a poeira da enxada, entranhada no nariz
     G               D         A              D   D D6 Bm
Trago a roça bem plantada, pra servir o meu país

Refrão:
A                          D
Sou, sou desse jeito e não mudo
                 F#m       G             D     D D6 Bm
Aqui eu tenho de tudo, e a vida não é mentira
A                         D
Sou, sou livre feito um regado
                   G          A7              D
Eu sou um bicho do mato, me orgulho de ser caipira
Solo:
                                    D
E|-4-5-5-5-4---0-2-2-2-0---0-2-0-0---|
B|-5-9-9-9-5---2-3-3-3-2---0-3-2-0---|
G|-----------------------------------|
D|-----------------------------------|
A|-----------------------------------|
E|-----------------------------------|

   D                 F#m       G          A     D
Doutor eu não tive estudo, só sei mesmo é trabalhar
     Bm        F#m         G             D
Nessa casa de matuto, é bem vindo quem chegar
   G                 D          E7                A
Se tenho as mãos calejadas, é do arado rasgando o chão
    G                  D         A               D    D D6 Bm
Se a minha pele é queimada, é o sol forte do sertão

(Refrão)

(Solo)

  D                   F#m         G     A         D
Enquanto alguns fazem guerra, trazendo fome e tristeza
    Bm            F#m         G                D
Minha luta é com a terra, pra não faltar pão na mesa
   G              D           E7             A
As vezes vou na cidade, mais nem sei falar direito
    G              D        A                D     D D6 Bm
Pois caipira de verdade, nasce e morre desse jeito

(Refrão 2x)

(Solo)
                                   D
E|---4-5-5-5-4---0-2-2-2-0---0-2-0-0--0-0-0-0-2-2/4---|
B|---5-9-9-9-5---2-3-3-3-2---0-3-2-0--2-2-2-2-3-3/5---|
G|----------------------------------------------------|
D|----------------------------------------------------|
A|----------------------------------------------------|
E|----------------------------------------------------|
Composición de Joel Marques / Maracaí
Colaboración y revisión:
  • Eliseu Vieira
48 vistas
    • ½ Tono
    • A
    • Bb
    • B
    • C
    • Db
    • D
    • Eb
    • E
    • F
    • F#
    • G
    • Ab
  • Agregar a la lista

    0 comentarios

    Ver todos los comentarios

    ¿Lograste tocar?

    0 Tocaron 0 Aún no

    ¡Graba un video tocando Caipira y envíanoslo!

    00:00 / 00:00
    Outros vídeos desta música
    Repetir Calidad Automático
    Outros vídeos desta música
    00:00 / 00:00
    Automático
    OK