Cifra Club

Aprenda

Bésame Mucho

Zoé

Tablatura: Principal (guitarra)
tono: G
Intro:
        Em                        Am
E|------0-3-2-3-0----0-3-2-3-0-------0-3-2-3-0----0-3-2-3-0-|
B|---0-------------0--------------1-------------1-----------|
G|----------------------------------------------------------|
D|----------------------------------------------------------|
A|----------------------------------------------------------|
E|---0-------------0--------------0-------------0-----------|(4x)

Verso:
Em              Am
Besame, besame mucho
Am        G          B
como si fuera esta noche
   B7     Em
la ultima vez

E7              Am
Besame, besame mucho
Em        G       B
Que tengo miedo a tenerte
  B7         Em
y perderte después        (4x)


Am                Em
Quiero tenerte muy cerca
              B7               B
Mirarte a los ojos verte junto a mi
Am                 Em
piensa que tal vez mañana
                  B7
yo ya estaré muy lejos
             B    Em
muy lejos de ti

Puente:
        Em                         Am
E|------0-3-2-3-0----0-3-2-3-0-|------0-3-2-3-0----0-3-2-3-0-|
B|---0-------------0-----------|---1-------------1-----------|
G|-----------------------------|-----------------------------|
D|-----------------------------|-----------------------------| (2x)
A|-----------------------------|-----------------------------|
E|---0-------------0-----------|---0-------------0-----------|

Verso:
Em              Am
Besame, besame mucho
Am        G          B
como si fuera esta noche
   B7     Em
la ultima vez
E|--------------------|
B|--------------------|
G|--------------------|
D|------------0-1-2---|
A|--2-1-2-3-4---------|
E|--------------------|
E7              Am
Besame, besame mucho
Em        G       B
Que tengo miedo a tenerte
  B7         Em
y perderte después

Solo:

E|------------------------------------------------------------0-0-|
B|-----------------------------------------------------------0--0-|
G|----------------------------------------------------------0---0-|
D|---------------------------------------------------------2------|
A|-----------------------2-0-0--0-0-0-2-2-2-3-3-3-2-------2-------|
E|--0--0-0-0---0-0-0-2-3----------------------------3-2-0---------|

E|----------------------0-----0-----0------0---------------------|
B|------------------------3-----3-----3-------0-1-0----1-0-1-0---|
G|-------------------1-------1-----1-----1----------2----------2-|
D|------------0-1-2----------------------------------2-----------|
A|--2-1-2-3-4----------------------------------------------------|
E|---------------------------------------------------------------|

E|----------------------------------0-0----------------------|
B|---------------------------------0--0----------------------|
G|--------------------------------0---0----------------------|
D|--2----------------------------2------------------0-1-2----|
A|----2----2--------------------2---------2-1-2-3-4----------|
E|------3----3-0--3-2-0--2-3-2-0-----------------------------|

Verso:
E7              Am
Besame, besame mucho
Em        G       B
Que tengo miedo a tenerte
  B7         Em
y perderte después....
Em        G       B
Que tengo miedo a tenerte
  B7        Em
y perderte después
Colaboración y revision:
  • Johan Beltrán
3.888 reproducciones
    • ½ Tono
    • A
    • Bb
    • B
    • C
    • Db
    • D
    • Eb
    • E
    • F
    • F#
    • G
    • Ab
  • Adicionar à lista

    0 comentarios

    Ver todos os comentários

    ¿Conseguiste tocar?

    3 Tocaram 0 Ainda não

    Grave um vídeo tocando Bésame Mucho e nos envie!

    00:00 / 00:00
    outros vídeos desta música
    repetir qualidade Automático
    Outros vídeos desta música
    00:00 / 00:00
    Automático
    OK