Cifra Club

Aprenda

Conspirador

Zoé

Tablatura: Principal (guitarra)
tono: D
(riff 1)
E|---------------------------------------|
B|---------------------------------------|
G|---------10/9-----------------10/9-----|  (3x)
D|---10/12------12--------10/12------12--|
A|-------------------10/12---------------|
E|---------------------------------------|

(riff 2)
E|------------------------------------------|
B|------------------------------------------|
G|-------------10----10---10-12-13-12-10----|   
D|------10/12----12----12----------------12-|
A|-10/12------------------------------------|
E|------------------------------------------|

(verso)
D
 Estuve un rato entretenido
D
 Estimulando la verdad
D                      F
 Pero despues de dos escalas
       G              D
 La mentira reaccionó

D
 La hora mas oscura de la noche
D
 es antes de que salga el sol
D                   F
 Manejas la teledistancia
         G
 como un mago predador

(ponte)
E|------------------------------------------|
B|------------------------------------------|
G|-10-9------9---9/10-9---9/10-9------------|
D|------12----12-------12-------12-10-12----|
A|------------------------------------------|
E|------------------------------------------|

E|-----------------------------|
B|-----------------------------|
G|-----------------------------|
D|-----------------------------|
A|-3----2--0-----------0-------|
E|--------------3--------------|

E|------------------------------|
B|------------------------------|
G|------------------------------|
D|-5-5/7-5----------------------|
A|---------7-5--3---------------|
E|------------------------------|

(riff 3)
E|--------------------------------------|
B|--------------------------------------|
G|-11--11/10-11/10----10--10------------|  (3x)
D|-----------------12---12--------10/12-|
B|---------------------------10/12------|
E|--------------------------------------|

(riff 4)
E|-------------------------------------------------------|
B|-------------------------------------------------------|
G|-11--11/10-11/10------------10---10--10-12-13-12-10----|
D|----------------------10/12---12---12---------------12-|
B|-----------------10/12---------------------------------|
E|-------------------------------------------------------|
Colaboración y revision:
  • Jefferson Sousa
68 reproducciones
    • ½ Tono
    • A
    • Bb
    • B
    • C
    • Db
    • D
    • Eb
    • E
    • F
    • F#
    • G
    • Ab
  • Adicionar à lista

    0 comentarios

    Ver todos os comentários

    ¿Conseguiste tocar?

    0 Tocaram 0 Ainda não

    Grave um vídeo tocando Conspirador e nos envie!

    00:00 / 00:00
    outros vídeos desta música
    repetir qualidade Automático
    Outros vídeos desta música
    00:00 / 00:00
    Automático
    OK