Cifra Club

Aprenda

Human Space Volt

Zoé

Tablatura: Principal (guitarra)
tono: D
Intro:

Em Bm x2

E|------------------------------------------------------------:
B|--8-7-8/12-7-8---------------8-7-8/12-7-8-------------------:
G|---------------7-7-7/6---6-7--------------7-7/11-9-7-6--7---:
D|-----------------------9------------------------------------:
A|------------------------------------------------------------:
E|------------------------------------------------------------:

Verso:
Em                        Bm       Em                        Bm  Em
i don't wanna live underground i just wanna make it home tonight no
                    Bm
one can see her and no one can find her
Em                   Bm Em                       Bm  Em
she rides a paper plane the television is their drug they gave
                    Bm
their eyes to the reich
Em                     Bm                    Em
no one can see her and no one could find her she was a junkie
                   F#
an alpha monkey an electronic nebula
                                G                          Bm
somewhere in the quantum land human space volt holly water need

some microwaves for redemption

Coro:
G                           Bm                                 F#
Human space volt holly wate need some microwaves for redemption

Solo:
E|-----------------------------------------------------------:
B|--8-7-8/12-7-8---------------8-7-8/12-7-8------------------:
G|---------------7-7-7/6---6-7-------------7-7-7/11-9-7-6--7-:
D|----------------------9------------------------------------:
A|-----------------------------------------------------------:
E|-----------------------------------------------------------:

Verso:
Em                     Bm                    Em
no one can see her and no one could find her she was a junkie
                    F#
an alpha monkey an electronic nebula

somewhere in the quantum land

Puente:
E|------------------------------------------------------:
B|------------------------------------------------------:
G|------------------------------------------------------:
D|------------------------------------------------------:
A|-2-2-2-2-2-2-2-0-2-4-4-4-4-4-4-4-0-2-4-5-5-5-5-5-5-5--:
E|------------------------------------------------------:

Coro:
G                             Bm
human space volt holly water need some microwaves for redemption
G                             Bm
human space volt holly water need some microwaves for redemption     x2
Colaboración y revision:
  • Johan Beltrán
307 reproducciones
    • ½ Tono
    • A
    • Bb
    • B
    • C
    • Db
    • D
    • Eb
    • E
    • F
    • F#
    • G
    • Ab
  • Adicionar à lista

    0 comentarios

    Ver todos os comentários

    ¿Conseguiste tocar?

    0 Tocaram 0 Ainda não

    Grave um vídeo tocando Human Space Volt e nos envie!

    00:00 / 00:00
    outros vídeos desta música
    repetir qualidade Automático
    Outros vídeos desta música
    00:00 / 00:00
    Automático
    OK