Cifra Club

Aprenda

No Me Destruyas

Zoé

Tablatura: Principal (guitarra)
tono: G
[Intro] D  Bm  D  Bm
        D  Bm  F#m  A

[Riff 1]

E|---------------------------------------------------------|
B|---------------------------------------------------------|
G|-7-9-7-9-7-9-7-9---7-9-7-9-7-9-7-9/11-11-11-11-11/12-11--|(3x)
D|-----------------7---------------------------------------|
A|---------------------------------------------------------|
E|---------------------------------------------------------|

[Primeira Parte]

D        Bm        D         Bm       D          Bm       F#m
Ya no me destruyas con tus mitomanías no rasques mis alas que
       A
Me duelen
D         Bm       D      Bm          D         Bm
Pastillas gigantes recámaras secretas con luces obscenas
F#m           A
Sáquenme de aquí

( D  Bm  D  Bm )
( D  Bm  F#m  A )

[Segunda Parte]

D            Bm        D            Bm        D          Bm     
Ya es triste aceptarlo pero no vale llorarlo uno siempre recibe
F#m             A
Lo que viene dando

[Refrão]

G                F#m        G                               F#m
Ya no afiles las navajas ya no me haces daño cuando me las clavas
G                   F#m
Ya no afiles los colmillos
G                              F#m
Ya no me haces daño cuando me desangras
D     Bm  F#m       A
Ya no me destruyas más 
D  Bm   F#m      A
Ya no me destruyas más

( D  Bm  D  Bm )
( D  Bm  F#m  A )

[Terceira Parte]

D        Bm        D       Bm       D          Bm
Ya no me destruyas mejor desaparece no rasques mis alas 
F#m       A
Que me duelen

[Solo] G   F#m  G  A 

E|----10-9----10-10-9/10----10-10-9/10----9-10-|
B|---------------------------------------------|
G|-12------12------------11------------11------|
D|---------------------------------------------|
A|---------------------------------------------|
E|---------------------------------------------|

E|---12-9----12-9----12-9----12-14--|
B|----------------10------10--------|
G|12------12------------------------|
D|----------------------------------|
A|----------------------------------|
E|----------------------------------|

G                    F#m
No me destruyas más, no me destruyas más
G               A
No necesito más no me destruyas más
G                F#m        G                               F#m
Ya no afiles las navajas ya no me haces daño cuando me las clavas
G                   F#m
Ya no afiles los colmillos
G                                 F#m
Ya no me hacen daño cuando me los hundes
D     Bm  F#m       A     D  Bm   F#m      A   Bm
Ya no me destruyas más ya no me destruyas más
Colaboración y revision:
  • Rikby King
2.924 reproducciones
    • ½ Tono
    • A
    • Bb
    • B
    • C
    • Db
    • D
    • Eb
    • E
    • F
    • F#
    • G
    • Ab
  • Adicionar à lista

    0 comentarios

    Ver todos os comentários

    ¿Conseguiste tocar?

    4 Tocaram 0 Ainda não

    Grave um vídeo tocando No Me Destruyas e nos envie!

    00:00 / 00:00
    outros vídeos desta música
    repetir qualidade Automático
    Outros vídeos desta música
    00:00 / 00:00
    Automático
    OK