Cifra Club

Aprenda

Nunca

Zoé

Tablatura: Principal (guitarra)
tono: D
(intro)

E|------------------------------------------------------------|
B|--------10h11p10------10h11p10-------10~--------------------|
G|-/9---------------12------------12--------------------------|
D|------------------------------------------------------------|
A|------------------------------------------------------------|
E|------------------------------------------------------------|

E|------------------------------------------------------------|
B|---10h11p10------10h11p10-----------------------------------|
G|------------12-------------/9-------------------------------| (3x)
D|------------------------------------------------------------|
A|------------------------------------------------------------|
E|------------------------------------------------------------| 

E|---8~---10~---12~-------------------------------------------|
B|-------------------11~--------------------------------------|
G|------------------------------------------------------------|
D|------------------------------------------------------------|
A|------------------------------------------------------------|
E|------------------------------------------------------------|
Colaboración y revision:
  • Jefferson Sousa
684 reproducciones
    • ½ Tono
    • A
    • Bb
    • B
    • C
    • Db
    • D
    • Eb
    • E
    • F
    • F#
    • G
    • Ab
  • Adicionar à lista

    0 comentarios

    Ver todos os comentários

    ¿Conseguiste tocar?

    0 Tocaram 0 Ainda não

    Grave um vídeo tocando Nunca e nos envie!

    00:00 / 00:00
    outros vídeos desta música
    repetir qualidade Automático
    Outros vídeos desta música
    00:00 / 00:00
    Automático
    OK