Cifra Club

Aprenda

Reptilectric

Zoé

Tablatura: Principal (guitarra)
tono: G
(verso)

(guitarra 2)
E|-------------------------------------------------------------------------|
B|-------------------------------------------------------------------------|
G|-------------------------------------------------------------------------|
D|-7777777777777777--------------------------------------------------------|
A|-------------------------------------------------------------------------|
E|-----------------4444444444444444----------------------------------------|

E|-----------------4-------------------------------------------------------|
B|--5-5-5-5-5-5-5-5-5-5-5-5-2-2-2-2----------------------------------------|
G|-6-6-6-6-6-6-6-6---6-6-6-4-4-4-4-----------------------------------------|
D|-------------------------------------------------------------------------|
A|-------------------------------------------------------------------------|
E|-------------------------------------------------------------------------|
 |(ja ah, ja ah)
E|-----------------54--------54--------------------------------------------|
B|--5-5-5-5-5-5-5-5---5-5-5-5---5-5-5-5------------------------------------|
G|-6-6-6-6-6-6-6-6---6-6-6-6---6-6-6-6-------------------------------------|
D|-------------------------------------------------------------------------|
A|-------------------------------------------------------------------------|
E|-------------------------------------------------------------------------|

(pré-refrão)

(guitarra 1)
E|--------0-----------0----------------------------------------------------|
B|-------0-----------0-----------------------------------------------------|
G|------2-----------2-------------6b7r6------------------------------------|
D|-----(2)---------(2)------------------7----------------------------------|
A|-------------------------0~~~~----------7--------------------------------|
E|-2~~~~-------1~~~~-------------------------------------------------------|

(refrão)

(guitarra 1)
E|-----2------------------------------------2-----------------0------------|
B|--------------0--------2--------0------------------0-----------------0---|
G|---2---2----2---2----2---2----2---2-----2---2----2---2----2---2----2---2-|
D|-4--------3---------------------------4--------3-------------------------|
A|-------------------0--------0---------------------------0--------0-------|
E|-------------------------------------------------------------------------|

E|-----2-----------------------------2-----2~~~~-----1---------------------|
B|--------------0--------2---------3---3------------------0----------------|
G|---2---2----2---2----2---2---2/4-----------------------------2-----------|
D|-4--------3--------------------------------------------------------------|
A|-------------------0-----------------------------------------------------|
E|-------------------------------------------------------------------------|

(guitarra 2)
E|-------------------------------------------------------------------------|
B|-------------------------------------------------------------------------|
G|-22222222-55555555---------77777-22222222-55555555---------77777---------|
D|-00000000-33333333-2222222-00000-00000000-33333333-2222222-00000---------|
A|-------------------0000000-------------------------0000000---------------|
E|-------------------------------------------------------------------------|

E|-------------------------------------------------------------------------|
B|-------------------------------------------------------------------------|
G|-222222222-55555555-------------66666666-55555555------------------------|
D|-000000000-33333333-22222224444-44444444-33333333--2~~~~-----------------|
A|--------------------00000002222--------------------0~~~~-----------------|
E|-------------------------------------------------------------------------|

(verso 2 - 4x)

(guitarra 1)
E|---12--12--12--12--------------------7-7-7-7-----------------------------|
B|-14--14--14--14----14--14--14--14---9-9-9-9--10^10^10^10-----------------|
G|-----------------14--14--14--14------------------------------------------|
D|-------------------------------------------------------------------------|
A|-------------------------------------------------------------------------|
E|-------------------------------------------------------------------------|

E|-------------------------------------------------------------------------|
B|--1515151515151515/55555555/15151515151515/1414141414141414/101010101010-|
G|-------------------------------------------------------------------------|
D|--1212121212121212/22222222/12121212121212/1111111111111111/777777777777-|
A|-------------------------------------------------------------------------|
E|-------------------------------------------------------------------------|

E|-------------------------------------------------------------------------|
B|--1515151515151515/55555555/77777777-77777777/55555555/10----------------|
G|-------------------------------------------------------------------------|
D|--1212121212121212/22222222/44444444-44444444/33333333/7-----------------|
A|-------------------------------------------------------------------------|
E|-------------------------------------------------------------------------|
Colaboración y revision:
  • Jefferson Sousa
527 reproducciones
    • ½ Tono
    • A
    • Bb
    • B
    • C
    • Db
    • D
    • Eb
    • E
    • F
    • F#
    • G
    • Ab
  • Adicionar à lista

    0 comentarios

    Ver todos os comentários

    ¿Conseguiste tocar?

    1 Tocaram 0 Ainda não

    Grave um vídeo tocando Reptilectric e nos envie!

    00:00 / 00:00
    outros vídeos desta música
    repetir qualidade Automático
    Outros vídeos desta música
    00:00 / 00:00
    Automático
    OK