Cifra Club

Black Hope Shot Down

Zornik

Cifrado: Principal (guitarra y guitarra eléctrica)
Selo Cifra Club: esta cifra foi revisada para atender aos critérios oficiais da nossa Equipe de Qualidade.
tono: Bb
Tabbed by:Den Alec
Email:*

intro+vers
e|-----------------------------------------------------|
B|-----------------------------------------------------|
G|-----------------------------------------------------|
D|---7-77-7-7777-7-77-7-7777---------------------------|
A|---6-55-6-5555-6-55-6-5555-7-77-7-7777-7-77-7-7777---|
E|---------------------------6-55-6-5555-6-55-6-5555---|

e|------------------------------------------------------|
B|------------------------------------------------------|
G|------------------------------------------------------|
D|---101010101010101010101010-5-55-5-5555-5-55-5-5555---|
A|---9-88-9-8888-9-88-9-8888--4-33-4-3333-4-33-4-3333---|
E|------------------------------------------------------|
dit zijn powerchords(zonder de pink) van 8 maar ik krijg de 10 er niet goed op dus je 
het gewoon zoals de andere chords spelen
dus: niet 1 0  maar 10
          8 8       8
je kan het ook zo spelen maar ik denk dat het zoals hierbove gespeeld moet worden
e|-----------------------------------------------------|
B|-----------------------------------------------------|
G|-----------------------------------------------------|
D|---8-77-8-7777-8-77-8-7777---------------------------|
A|---6-55-6-5555-6-55-6-5555-8-77-8-7777-8-77-8-7777---|
E|---------------------------6-55-6-5555-6-55-6-5555---|

e|-----------------------------------------------------|
B|-----------------------------------------------------|
G|-----------------------------------------------------|
D|---1110-111010-1110-111010-6-55-6-5555-6-55-6-5555---|
A|---9-88-9-8888-9-88-9-8888-4-33-4-3333-4-33-4-3333---|
E|-----------------------------------------------------|
   weer gewoon een 8 chord

chorus
e|--------------------------------------------------------------------------|
B|--------------------------------------------------------------------------|
G|---7777777777777777------------------1010101010101010-66666666-77777777---|
D|---7777777777777777-7777777777777777-1010101010101010-66666666-77777777---|
A|---5555555555555555-7777777777777777-8888888888888888-33333333-44444444---|
E|--------------------5555555555555555--------------------------------------|
                                 dit is weer een powerchord van 8
overgang
e|----------------------------------|
B|----------------------------------|
G|-------7~-----7~-----7~-----7-7---|
D|---777----777----777----777--7----|
A|---555----555----555----555-------|
E|----------------------------------|

(synth) pre bridge
e|--------------------------------------------------------------------------|
B|--------------------------------------------------------------------------|
G|--------------------------------------------------------------------------|
D|--------------------------------------------------------------------------|
A|---5555555555555555-----------------------------------33333333-44444444---|
E|--------------------5555555555555555-1111111111111111---------------------|
de bridge heb ik niet kunnen ontcijferen

het kan dat ik nog kleine details ben vergeten maar ik heb het lietje niet op CD dus 
ik het van TV zien te horen

voor verbeteringen en/of commentaar email me of plaats het bij de tab
geef deze tab ook aub sterren

| /  slide up
| \  slide down
| h  hammer-on
| p  pull-off
| ~  vibrato
| +  harmonic
| x  Mute note
=============================================================================
Otros videos de esta canción
    14 exhibiciones
      • ½ Tono
      • A
      • Bb
      • B
      • C
      • Db
      • D
      • Eb
      • E
      • F
      • F#
      • G
      • Ab
    • Agregar a la lista

    Afinação da cifra

    Afinador online

      Ops (: Contenido disponible solo en portugués.
      OK