Cifra Club

Dreams Dont Come Easy

Zornik

Cifrado: Principal (guitarra y guitarra eléctrica)
Selo Cifra Club: esta cifra foi revisada para atender aos critérios oficiais da nossa Equipe de Qualidade.
tono: Dm
[Solo 1]
E|-------------------------|---------------------|
B|-------------------------|---------------------|
G|-------------------------|---------------------| x4
D|-------------------------|---------------------|
A|-5--------5-5--------5---|--5-------5--3-3-3-3-|
E|---0---0------0--0-------|----0---0------------|

E|------------------|------------------|
B|------------------|------------------|
G|------------------|------------------|
D|------------------|------------------|
A|-------1-1-0------|---0---0-3-3-4----|
E|-3-5------------5-|-5----------------|


[Solo 2]
E|------------------|---------------------|------------------|------|
B|------------------|---------------------|------------------|------|
G|------------------|---------------------|------------------|------|
D|------------------|---------------------|------------------|------|
A|---------5--------|---------3-5-5-3-----|---------5--------|------|
E|-0-0---0------0-0-|---0---0-------------|-0-0---0------0-0-|----0-|


[Solo 3]
E|-------------------------|---------------------|
B|-------------------------|---------------------|
G|-------------------------|---------------------| x4
D|-------------------------|---------------------|
A|-5--------5-5--------5---|--5-------5--3-3-3-3-|
E|---0---0------0--0-------|----0---0------------| 

E|------------------|------------------|
B|------------------|------------------|
G|------------------|------------------|
D|------------------|------------------|
A|-------1-1-0------|---0---0-3-3-4----|
E|-3-5------------5-|-5----------------|


[Outro]
E|-------------------------|---------------------|
B|-------------------------|---------------------|
G|-------------------------|---------------------| x8
D|-------------------------|---------------------|
A|-5--------5-5--------5---|--5-------5--3-3-3-3-|
E|---0---0------0--0-------|----0---0------------|

E|------------------|------------------|
B|------------------|------------------|
G|------------------|------------------| x4
D|------------------|------------------|
A|-------1-1-0------|---0---0-3-3-4----|
E|-3-5------------5-|-5----------------|

E|------------------|-----------------| |
B|------------------|-----------------| |
G|------------------|-----------------| |
D|------------------|-----------------| |
A|------------------|---------3-------| |
D|-0-0-3-0-0----0-0-|-3-0-3-0---0-0---||
Otros videos de esta canción
    0 exhibiciones
      • ½ Tono
      • Am
      • Bbm
      • Bm
      • Cm
      • C#m
      • Dm
      • Ebm
      • Em
      • Fm
      • F#m
      • Gm
      • G#m
    • Agregar a la lista

    Afinação da cifra

    Afinador online

      Ops (: Contenido disponible solo en portugués.
      OK