Cifra Club

Scared Of Yourself

Zornik

Cifrado: Principal (guitarra y guitarra eléctrica)
Selo Cifra Club: esta cifra foi revisada para atender aos critérios oficiais da nossa Equipe de Qualidade.
tono: F
Album: One-Armed Bandit (track2)
Transcribed by *

Chords:
A:         x02220
A/G#:      4x2220
F#m7:      2x2222
A/E:       002220
E7/D:      020100
D:         xx0232
E:         022100
Esus4:     022200
E:         022100
Am:        002210
Asus2:     002230
Em:        022000
F:         133211
G:         3200(3)3
C:         032010

INTRO:
A       A/G#    F#m7    A/E     E7/D D  E Esus4 E

VERSE1:
You reach for pain
        A
you reach for fear
        A/G#
you reach for everything
        F#m7
but nothing ever comes your way
        A/E             E7/D D  E Esus4 E

VERSE2:
And I'm not lying
        A       A/G#
And you always complain about the way I behave without you
        F#m7            A/E             E7/D D          E Esus4 E

And last night I had a dream
        A       A/G#    F#m7    A/E     E7/D D
about it
        E Esus4 E
And it's very hard to stay faithful
        A       A/G#    F#m7    A/E     E7/D D
to a dream of you
        E Esus4 E~*

INTERLUDE1(*):
        Asus2   Am              Asus2   Am
E|----------------------------------------------------------------------|
B|--------3----(1)-(1)-(1)-(1)----3----(1)-(1)-(1)-(1)-(1)-(1)-(1)-(1)--|
G|--------2----(2)-(2)-(2)-(2)----2----(2)-(2)-(2)-(2)-(2)-(2)-(2)-(2)--|
D|-------(2)----2---2---2---2----(2)----2---2---2---2---2---2---2---2---|
A|----------------------------------------------------------------------|
E|----------------------------------------------------------------------|
        Asus2   Am              Asus2   Am              Asus2
------------------------------------------------------------------------|
----------3----(1)-(1)-(1)-(1)----3----(1)-(1)-(1)-(1)----3---3---------|
----------2----(2)-(2)-(2)-(2)----2----(2)-(2)-(2)-(2)----2---2---------|
---------(2)----2---2---2---2----(2)----2---2---2---2----(2)-(2)--------|
------------------------------------------------------------------------|
------------------------------------------------------------------------|
        Asus2   Am              Asus2   Am
------------------------------------------------------------------------|
----------3----(1)-(1)-(1)-(1)----3----(1)-(1)-(1)-(1)-(1)-(1)-(1)-(1)--|
----------2----(2)-(2)-(2)-(2)----2----(2)-(2)-(2)-(2)-(2)-(2)-(2)-(2)--|
---------(2)----2---2---2---2----(2)----2---2---2---2---2---2---2---2---|
------------------------------------------------------------------------|
------------------------------------------------------------------------|
        Asus2   Am              Asus2   Am              Asus2
------------------------------------------------------------------------|
----------3----(1)-(1)-(1)-(1)----3----(1)-(1)-(1)-(1)----3---3---------|
----------2----(2)-(2)-(2)-(2)----2----(2)-(2)-(2)-(2)----2---2---------|
---------(2)----2---2---2---2----(2)----2---2---2---2----(2)-(2)--------|
------------------------------------------------------------------------|
------------------------------------------------------------------------|
        Am      Asus2           Am
----------------------------------------|
-------(1)-(1)---3---3---------(1)(1)---|
--------2---2----2---2----------2--2----|
--------2---2---(2)-(2)---------2--2----|
----------------------------------------|
----------------------------------------|

CHORUS:
Think about the lies
        Am      Em
that we told to each other
        F
we never bothered
        C       G
What a big surprise
        Am      Em
that you're scared of yourself
        F
and alone all again
        C       G

VERSE3:
You reach for me
        A
you reach for us
        A/G#
you reach for everything
        F#m7
but nothing ever comes my way
        A/E             E7/D D  E Esus4 E
VERSE4:
But you
A       A/G#
you are nothing but a state of mind
        F#m7    A/E     E7/D D
from the start until the end
                E Esus4 E~*

CHORUS

CHORUS (without lyrics)

INTERLUDE2:
        Asus2   Am              Asus2   Am
E|----------------------------------------------------------------------|
B|--------3----(1)-(1)-(1)-(1)----3----(1)-(1)-(1)-(1)-(1)-(1)-(1)-(1)--|
G|--------2----(2)-(2)-(2)-(2)----2----(2)-(2)-(2)-(2)-(2)-(2)-(2)-(2)--|
D|-------(2)----2---2---2---2----(2)----2---2---2---2---2---2---2---2---|
A|----------------------------------------------------------------------|
E|----------------------------------------------------------------------|
        Asus2   Am              Asus2   Am              Asus2
------------------------------------------------------------------------|
----------3----(1)-(1)-(1)-(1)----3----(1)-(1)-(1)-(1)----3---3---------|
----------2----(2)-(2)-(2)-(2)----2----(2)-(2)-(2)-(2)----2---2---------|
---------(2)----2---2---2---2----(2)----2---2---2---2----(2)-(2)--------|
------------------------------------------------------------------------|
------------------------------------------------------------------------|
        Asus2   Am              Asus2   Am              Asus2
------------------------------------------------------------------------|
----------3----(1)-(1)-(1)-(1)----3----(1)-(1)-(1)-(1)----3---3---------|
----------2----(2)-(2)-(2)-(2)----2----(2)-(2)-(2)-(2)----2---2---------|
---------(2)----2---2---2---2----(2)----2---2---2---2----(2)-(2)--------|
------------------------------------------------------------------------|
------------------------------------------------------------------------|
Otros videos de esta canción
    8 exhibiciones
      • ½ Tono
      • A
      • Bb
      • B
      • C
      • Db
      • D
      • Eb
      • E
      • F
      • F#
      • G
      • Ab
    • Agregar a la lista

    Afinação da cifra

    Afinador online

      Ops (: Contenido disponible solo en portugués.
      OK