Cifra Club

The Enemy

Zornik

Cifrado: Principal (guitarra y guitarra eléctrica)
Selo Cifra Club: esta cifra foi revisada para atender aos critérios oficiais da nossa Equipe de Qualidade.
tono: G
Intro distortion palm mute
E|-----------|-----------|-----------|-----------|-------------|-------------|
B|-----------|-----------|-----------|-----------|-------------|-------------|
G|-7-7-7-7-7-| 7-7-7---10-|-10-10-10--|-10-10-10--|-10--5-5-5-5-|-5-5-5-5-----|
D|-5-5-5-5-5-| 5-5-5---8--|-8--8--8---|-8--8--8---|-8---3-3-3-3-|-3-3-3-3-----|
A|-----------|-----------|-----------|-----------|-------------|-------------|
E|-----------|-----------|-----------|-----------|-------------|-------------|

E|-----------|-----------|-----------|-----------|-------------|-------------|
B|-----------|-----------|-----------|-----------|-------------|-------------|
G|12-12-12-12|-12-12-12--| 12---------|-----------|-------------|-------------|
D|10-10-10-10|-10-10-10--| 10---------|-----------|-------------|-------------|
A|-----------|-----------|-----------|-----------|-------------|-------------|
E|-----------|-----------|-----------|-----------|-------------|-------------|

1 Verse 1 distrotion palm mute
E|-----------|-----------|-----------|-----------|-------------|-------------|
B|-----------|-----------|-----------|-----------|-------------|-------------|
G|-7-7-7-7-7-| 7-7-7---10-|-10-10-10--|-10-10-10--|-10--5-5-5-5-|-5-5-5-5-----|
D|-5-5-5-5-5-| 5-5-5---8--|-8--8--8---|-8--8--8---|-8---3-3-3-3-|-3-3-3-3-----|
A|-----------|-----------|-----------|-----------|-------------|-------------|
E|-----------|-----------|-----------|-----------|-------------|-------------|

E|-----------|-----------|-----------|-----------|-------------|-------------|
B|-----------|-----------|-----------|-----------|-------------|-------------|
G|12-12-12-12|-12-12-12--| 12---------|-----------|-------------|-------------|
D|10-10-10-10|-10-10-10--| 10---------|-----------|-------------|-------------|
A|-----------|-----------|-----------|-----------|-------------|-------------|
E|-----------|-----------|-----------|-----------|-------------|-------------|

E|-----------|-----------|-----------|-----------|-------------|-------------|
B|-----------|-----------|-----------|-----------|-------------|-------------|
G|-7-7-7-7-7-| 7-7-7---10-|-10-10-10--|-10-10-10--|-10--5-5-5-5-|-5-5-5-5-----|
D|-5-5-5-5-5-| 5-5-5---8--|-8--8--8---|-8--8--8---|-8---3-3-3-3-|-3-3-3-3-----|
A|-----------|-----------|-----------|-----------|-------------|-------------|
E|-----------|-----------|-----------|-----------|-------------|-------------|

E|-----------|-----------|-----------|-----------|-------------|-------------|
B|-----------|-----------|-----------|-----------|-------------|-------------|
G|12-12-12-12|-12-12-12--| 12---------|-----------|-------------|-------------|
D|10-10-10-10|-10-10-10--| 10---------|-----------|-------------|-------------|
A|-----------|-----------|-----------|-----------|-------------|-------------|
E|-----------|-----------|-----------|-----------|-------------|-------------|

1 verse 2 ' As your cage.. ' distortion 
E|-----------|-----------|-----------|-----------|-------------|-------------|
B|-----------|-----------|-----------|-----------|-------------|-------------|
G|7-7-7-7-7-7|-7-7-7-7-7-| 7-7-7-7-7--|8-8-8-8-8-8|-8-8-7-7-7-7-|-7-7-7-7-----|
D|5-5-5-5-5-5|-5-5-7-7-7-| 7-7-7-7-7--|8-8-8-8-8-8|-8-8-7-7-7-7-|-7-7-7-7-----|
A|-----------|-----------|-----------|-----------|-------------|-------------|
E|-----------|-----------|-----------|-----------|-------------|-------------|

E|-----------|-----------|-----------|-----------|-------------|-------------|
B|-----------|-----------|-----------|-----------|-------------|-------------|
G|7-7-7-7-7-7|-7-7-7-7-7-| 7-7-7-7-7--|8-8-8-8-8-8|-8-8-7-7-7-7-|-7-7-7-7-----|
D|5-5-5-5-5-5|-5-5-7-7-7-| 7-7-7-7-7--|8-8-8-8-8-8|-8-8-7-7-7-7-|-7-7-7-7-----|
A|-----------|-----------|-----------|-----------|-------------|-------------|
E|-----------|-----------|-----------|-----------|-------------|-------------|

Pre chorus ' Don't be the one who..' distortion
E|-----------|-----------|-----------|-----------|-------------|-------------|
B|-----------|-----------|-----------|-----------|-------------|-------------|
G|-7-7-7-7-7-| 7-7-7-8-8-8|-8-8-8-8-8-|-10-10-10--|10-10-10-10--|10-7-7-7-7-7-|
D|-5-5-5-5-5-| 5-5-5-8-8-8|-8-8-8-8-8-|-8--8--8---|8--8--8--8---|8--7-7-7-7-7-|
A|-----------|-----------|-----------|-----------|-------------|-------------|
E|-----------|-----------|-----------|-----------|-------------|-------------|

E|-----------|-----------|-----------|-----------|-------------|-------------|
B|-----------|-----------|-----------|-----------|-------------|-------------|
G|7-7-7------|-----------|-----------|-----------|-------------|-------------|
D|7-7-7------|-----------|-----------|-----------|-------------|-------------|
A|-----------|-----------|-----------|-----------|-------------|-------------|
E|-----------|-----------|-----------|-----------|-------------|-------------|

E|-----------|-----------|-----------|-----------|-------------|-------------|
B|-----------|-----------|-----------|-----------|-------------|-------------|
G|-7-7-7-7-7-| 7-7-7-8-8-8|-8-8-8-8-8-|-10-10-10--|10-10-10-10--|10-7-7-7-7-7-|
D|-5-5-5-5-5-| 5-5-5-8-8-8|-8-8-8-8-8-|-8--8--8---|8--8--8--8---|8--7-7-7-7-7-|
A|-----------|-----------|-----------|-----------|-------------|-------------|
E|-----------|-----------|-----------|-----------|-------------|-------------|

E|-----------|-----------|-----------|-----------|-------------|-------------|
B|-----------|-----------|-----------|-----------|-------------|-------------|
G|7-7-7------|-----------|-----------|-----------|-------------|-------------|
D|7-7-7------|-----------|-----------|-----------|-------------|-------------|
A|-----------|-----------|-----------|-----------|-------------|-------------|
E|-----------|-----------|-----------|-----------|-------------|-------------|

Chorus 'Take your shot ..' distortion
E|-----------|-----------|-----------|-----------|-------------|-------------|
B|-----------|-----------|-----------|-----------|-------------|-------------|
G|-7-7-7-7-7-| 7-7-7-8-8-8|-8-8-8-8-8-|-10-10-10--|10-10-10-10--|10-7-7-7-7-7-|
D|-5-5-5-5-5-| 5-5-5-8-8-8|-8-8-8-8-8-|-8--8--8---|8--8--8--8---|8--7-7-7-7-7-|
A|-----------|-----------|-----------|-----------|-------------|-------------|
E|-----------|-----------|-----------|-----------|-------------|-------------|

E|-----------|-----------|-----------|-----------|-------------|-------------|
B|-----------|-----------|-----------|-----------|-------------|-------------|
G|7-7-7------|-----------|-----------|-----------|-------------|-------------|
D|7-7-7------|-----------|-----------|-----------|-------------|-------------|
A|-----------|-----------|-----------|-----------|-------------|-------------|
E|-----------|-----------|-----------|-----------|-------------|-------------|

E|-----------|-----------|-----------|-----------|-------------|-------------|
B|-----------|-----------|-----------|-----------|-------------|-------------|
G|-7-7-7-7-7-| 7-7-7-8-8-8|-8-8-8-8-8-|-10-10-10--|10-10-10-10--|10-let ring--|
D|-5-5-5-5-5-| 5-5-5-8-8-8|-8-8-8-8-8-|-8--8--8---|8--8--8--8---|8--let ring--|
A|-----------|-----------|-----------|-----------|-------------|-------------|
E|-----------|-----------|-----------|-----------|-------------|-------------|


2 Verse 1' As the wall..' palm mute
E|-----------|-----------|-----------|-----------|-------------|-------------|
B|-----------|-----------|-----------|-----------|-------------|-------------|
G|-7-7-7-7-7-| 7-7-7---10-|-10-10-10--|-10-10-10--|-10--5-5-5-5-|-5-5-5-5-----|
D|-5-5-5-5-5-| 5-5-5---8--|-8--8--8---|-8--8--8---|-8---3-3-3-3-|-3-3-3-3-----|
A|-----------|-----------|-----------|-----------|-------------|-------------|
E|-----------|-----------|-----------|-----------|-------------|-------------|

E|-----------|-----------|-----------|-----------|-------------|-------------|
B|-----------|-----------|-----------|-----------|-------------|-------------|
G|12-12-12-12|-12-12-12--| 12---------|-----------|-------------|-------------|
D|10-10-10-10|-10-10-10--| 10---------|-----------|-------------|-------------|
A|-----------|-----------|-----------|-----------|-------------|-------------|
E|-----------|-----------|-----------|-----------|-------------|-------------|

E|-----------|-----------|-----------|-----------|-------------|-------------|
B|-----------|-----------|-----------|-----------|-------------|-------------|
G|-7-7-7-7-7-| 7-7-7---10-|-10-10-10--|-10-10-10--|-10--5-5-5-5-|-5-5-5-5-----|
D|-5-5-5-5-5-| 5-5-5---8--|-8--8--8---|-8--8--8---|-8---3-3-3-3-|-3-3-3-3-----|
A|-----------|-----------|-----------|-----------|-------------|-------------|
E|-----------|-----------|-----------|-----------|-------------|-------------|

E|-----------|-----------|-----------|-----------|-------------|-------------|
B|-----------|-----------|-----------|-----------|-------------|-------------|
G|12-12-12-12|-12-12-12--| 12---------|-----------|-------------|-------------|
D|10-10-10-10|-10-10-10--| 10---------|-----------|-------------|-------------|
A|-----------|-----------|-----------|-----------|-------------|-------------|
E|-----------|-----------|-----------|-----------|-------------|-------------|

2 verse 2 ' As your cage.. ' distortion 
E|-----------|-----------|-----------|-----------|-------------|-------------|
B|-----------|-----------|-----------|-----------|-------------|-------------|
G|7-7-7-7-7-7|-7-7-7-7-7-| 7-7-7-7-7--|8-8-8-8-8-8|-8-8-7-7-7-7-|-7-7-7-7-----|
D|5-5-5-5-5-5|-5-5-7-7-7-| 7-7-7-7-7--|8-8-8-8-8-8|-8-8-7-7-7-7-|-7-7-7-7-----|
A|-----------|-----------|-----------|-----------|-------------|-------------|
E|-----------|-----------|-----------|-----------|-------------|-------------|

E|-----------|-----------|-----------|-----------|-------------|-------------|
B|-----------|-----------|-----------|-----------|-------------|-------------|
G|7-7-7-7-7-7|-7-7-7-7-7-| 7-7-7-7-7--|8-8-8-8-8-8|-8-8-7-7-7-7-|-7-7-7-7-----|
D|5-5-5-5-5-5|-5-5-7-7-7-| 7-7-7-7-7--|8-8-8-8-8-8|-8-8-7-7-7-7-|-7-7-7-7-----|
A|-----------|-----------|-----------|-----------|-------------|-------------|
E|-----------|-----------|-----------|-----------|-------------|-------------|

Pre chorus ' Don't be the one who..' distortion
E|-----------|-----------|-----------|-----------|-------------|-------------|
B|-----------|-----------|-----------|-----------|-------------|-------------|
G|-7-7-7-7-7-| 7-7-7-8-8-8|-8-8-8-8-8-|-10-10-10--|10-10-10-10--|10-7-7-7-7-7-|
D|-5-5-5-5-5-| 5-5-5-8-8-8|-8-8-8-8-8-|-8--8--8---|8--8--8--8---|8--7-7-7-7-7-|
A|-----------|-----------|-----------|-----------|-------------|-------------|
E|-----------|-----------|-----------|-----------|-------------|-------------|

E|-----------|-----------|-----------|-----------|-------------|-------------|
B|-----------|-----------|-----------|-----------|-------------|-------------|
G|7-7-7------|-----------|-----------|-----------|-------------|-------------|
D|7-7-7------|-----------|-----------|-----------|-------------|-------------|
A|-----------|-----------|-----------|-----------|-------------|-------------|
E|-----------|-----------|-----------|-----------|-------------|-------------|

E|-----------|-----------|-----------|-----------|-------------|-------------|
B|-----------|-----------|-----------|-----------|-------------|-------------|
G|-7-7-7-7-7-| 7-7-7-8-8-8|-8-8-8-8-8-|-10-10-10--|10-10-10-10--|10-7-7-7-7-7-|
D|-5-5-5-5-5-| 5-5-5-8-8-8|-8-8-8-8-8-|-8--8--8---|8--8--8--8---|8--7-7-7-7-7-|
A|-----------|-----------|-----------|-----------|-------------|-------------|
E|-----------|-----------|-----------|-----------|-------------|-------------|

E|-----------|-----------|-----------|-----------|-------------|-------------|
B|-----------|-----------|-----------|-----------|-------------|-------------|
G|7-7-7------|-----------|-----------|-----------|-------------|-------------|
D|7-7-7------|-----------|-----------|-----------|-------------|-------------|
A|-----------|-----------|-----------|-----------|-------------|-------------|
E|-----------|-----------|-----------|-----------|-------------|-------------|

Chorus 'Take your shot ..' distortion
E|-----------|-----------|-----------|-----------|-------------|-------------|
B|-----------|-----------|-----------|-----------|-------------|-------------|
G|-7-7-7-7-7-| 7-7-7-8-8-8|-8-8-8-8-8-|-10-10-10--|10-10-10-10--|10-7-7-7-7-7-|
D|-5-5-5-5-5-| 5-5-5-8-8-8|-8-8-8-8-8-|-8--8--8---|8--8--8--8---|8--7-7-7-7-7-|
A|-----------|-----------|-----------|-----------|-------------|-------------|
E|-----------|-----------|-----------|-----------|-------------|-------------|

E|-----------|-----------|-----------|-----------|-------------|-------------|
B|-----------|-----------|-----------|-----------|-------------|-------------|
G|7-7-7------|-----------|-----------|-----------|-------------|-------------|
D|7-7-7------|-----------|-----------|-----------|-------------|-------------|
A|-----------|-----------|-----------|-----------|-------------|-------------|
E|-----------|-----------|-----------|-----------|-------------|-------------|

E|-----------|-----------|-----------|-----------|-------------|-------------|
B|-----------|-----------|-----------|-----------|-------------|-------------|
G|-7-7-7-7-7-| 7-7-7-8-8-8|-8-8-8-8-8-|-10-10-10--|10-10-10-10--|10-7-7-7-7-7-|
D|-5-5-5-5-5-| 5-5-5-8-8-8|-8-8-8-8-8-|-8--8--8---|8--8--8--8---|8--7-7-7-7-7-|
A|-----------|-----------|-----------|-----------|-------------|-------------|
E|-----------|-----------|-----------|-----------|-------------|-------------|

E|-----------|-----------|-----------|-----------|-------------|-------------|
B|-----------|-----------|-----------|-----------|-------------|-------------|
G|7-7-7------|-----------|-----------|-----------|-------------|-------------|
D|7-7-7------| no ring out , straigt forward to next riff-below-|-------------|
A|-----------|-----------|-----------|-----------|-------------|-------------|
E|-----------|-----------|-----------|-----------|-------------|-------------|
chorus repeat
E|-----------|-----------|-----------|-----------|-------------|-------------|
B|-----------|-----------|-----------|-----------|-------------|-------------|
G|-7-7-7-7-7-| 7-7-7-8-8-8|-8-8-8-8-8-|-10-10-10--|10-10-10-10--|10-7-7-7-7-7-|
D|-5-5-5-5-5-| 5-5-5-8-8-8|-8-8-8-8-8-|-8--8--8---|8--8--8--8---|8--7-7-7-7-7-|
A|-----------|-----------|-----------|-----------|-------------|-------------|
E|-----------|-----------|-----------|-----------|-------------|-------------|

E|-----------|-----------|-----------|-----------|-------------|-------------|
B|-----------|-----------|-----------|-----------|-------------|-------------|
G|7-7-7------|-----------|-----------|-----------|-------------|-------------|
D|7-7-7------|-----------|-----------|-----------|-------------|-------------|
A|-----------|-----------|-----------|-----------|-------------|-------------|
E|-----------|-----------|-----------|-----------|-------------|-------------|

E|-----------|-----------|-----------|-----------|-------------|-------------|
B|-----------|-----------|-----------|-----------|-------------|-------------|
G|-7-7-7-7-7-| 7-7-7-8-8-8|-8-8-8-8-8-|-10-10-10--|10-10-10-10--|10-let ring--|
D|-5-5-5-5-5-| 5-5-5-8-8-8|-8-8-8-8-8-|-8--8--8---|8--8--8--8---|8--let ring--|
A|-----------|-----------|-----------|-----------|-------------|-------------|
E|-----------|-----------|-----------|-----------|-------------|-------------|

E|-----------|-----------|-----------|-----------|-------------|-------------|
B|-----------|-----------|-----------|-----------|-------------|-------------|
|let ring...|-----------|-----------|-----------|-------------|-------------|
|let ring...|-----------|-----------|-----------|-------------|-------------|
E|-----------|-----------|-----------|-----------|-------------|-------------|
B|-----------|-----------|-----------|-----------|-------------|-------------|
play this chorus clean 
E|-----------|-----------|-----------|-----------|-------------|-------------|
B|-----------|-----------|-----------|-----------|-------------|-------------|
G|-7-7-7-7-7-| 7-7-7-8-8-8|-8-8-8-8-8-|-10-10-10--|10-10-10-10--|10-7-7-7-7-7-|
D|-5-5-5-5-5-| 5-5-5-8-8-8|-8-8-8-8-8-|-8--8--8---|8--8--8--8---|8--7-7-7-7-7-|
A|-----------|-----------|-----------|-----------|-------------|-------------|
E|-----------|-----------|-----------|-----------|-------------|-------------|

E|-----------|-----------|-----------|-----------|-------------|-------------|
B|-----------|-----------|-----------|-----------|-------------|-------------|
G|7-7-7------|-----------|-----------|-----------|-------------|-------------|
D|7-7-7------|-----------|-----------|-----------|-------------|-------------|
A|-----------|-----------|-----------|-----------|-------------|-------------|
E|-----------|-----------|-----------|-----------|-------------|-------------|

E|-----------|-----------|-----------|-----------|-------------|-------------|
B|-----------|-----------|-----------|-----------|-------------|-------------|
G|-7-7-7-7-7-| 7-7-7-8-8-8|-8-8-8-8-8-|-10-10-10--|10-10-10-10--|10-7-7-7-7-7-|
D|-5-5-5-5-5-| 5-5-5-8-8-8|-8-8-8-8-8-|-8--8--8---|8--8--8--8---|8--7-7-7-7-7-|
A|-----------|-----------|-----------|-----------|-------------|-------------|
E|-----------|-----------|-----------|-----------|-------------|-------------|

E|-----------|-----------|-----------|-----------|-------------|-------------|
B|-----------|-----------|-----------|-----------|-------------|-------------|
G|7-7-7------|-----------|-----------|-----------|-------------|-------------|
D|7-7-7------|-----------|-----------|-----------|-------------|-------------|
A|-----------|-----------|-----------|-----------|-------------|-------------|
E|-----------|-----------|-----------|-----------|-------------|-------------|

Vocals sing chorus 1 time with effects


chorus 'Take your shot ..' distortion
E|-----------|-----------|-----------|-----------|-------------|-------------|
B|-----------|-----------|-----------|-----------|-------------|-------------|
G|-7-7-7-7-7-| 7-7-7-8-8-8|-8-8-8-8-8-|-10-10-10--|10-10-10-10--|10-7-7-7-7-7-|
D|-5-5-5-5-5-| 5-5-5-8-8-8|-8-8-8-8-8-|-8--8--8---|8--8--8--8---|8--7-7-7-7-7-|
A|-----------|-----------|-----------|-----------|-------------|-------------|
E|-----------|-----------|-----------|-----------|-------------|-------------|

E|-----------|-----------|-----------|-----------|-------------|-------------|
B|-----------|-----------|-----------|-----------|-------------|-------------|
G|7-7-7------|-----------|-----------|-----------|-------------|-------------|
D|7-7-7------|-----------|-----------|-----------|-------------|-------------|
A|-----------|-----------|-----------|-----------|-------------|-------------|
E|-----------|-----------|-----------|-----------|-------------|-------------|

E|-----------|-----------|-----------|-----------|-------------|-------------|
B|-----------|-----------|-----------|-----------|-------------|-------------|
G|-7-7-7-7-7-| 7-7-7-8-8-8|-8-8-8-8-8-|-10-10-10--|10-10-10-10--|10-7-7-7-7-7-|
D|-5-5-5-5-5-| 5-5-5-8-8-8|-8-8-8-8-8-|-8--8--8---|8--8--8--8---|8--7-7-7-7-7-|
A|-----------|-----------|-----------|-----------|-------------|-------------|
E|-----------|-----------|-----------|-----------|-------------|-------------|

E|-----------|-----------|-----------|-----------|-------------|-------------|
B|-----------|-----------|-----------|-----------|-------------|-------------|
G|7-7-7------|-----------|-----------|-----------|-------------|-------------|
D|7-7-7------| no ring out , straigt forward to next riff-below-|-------------|
A|-----------|-----------|-----------|-----------|-------------|-------------|
E|-----------|-----------|-----------|-----------|-------------|-------------|

E|-----------|-----------|-----------|-----------|-------------|-------------|
B|-----------|-----------|-----------|-----------|-------------|-------------|
G|-7-7-7-7-7-| 7-7-7-8-8-8|-8-8-8-8-8-|-10-10-10--|10-10-10-10--|10-7-7-7-7-7-|
D|-5-5-5-5-5-| 5-5-5-8-8-8|-8-8-8-8-8-|-8--8--8---|8--8--8--8---|8--7-7-7-7-7-|
A|-----------|-----------|-----------|-----------|-------------|-------------|
E|-----------|-----------|-----------|-----------|-------------|-------------|

E|-----------|-----------|-----------|-----------|-------------|-------------|
B|-----------|-----------|-----------|-----------|-------------|-------------|
G|7-7-7------|-----------|-----------|-----------|-------------|-------------|
D|7-7-7------|-----------|-----------|-----------|-------------|-------------|
A|-----------|-----------|-----------|-----------|-------------|-------------|
E|-----------|-----------|-----------|-----------|-------------|-------------|

E|-----------|-----------|-----------|-----------|-------------|-------------|
B|-----------|-----------|-----------|-----------|-------------|-------------|
G|-7-7-7-7-7-| 7-7-7-8-8-8|-8-8-8-8-8-|-10-10-10--|10-10-10-10--|10-7-7-7-7-7-|
D|-5-5-5-5-5-| 5-5-5-8-8-8|-8-8-8-8-8-|-8--8--8---|8--8--8--8---|8--7-7-7-7-7-|
A|-----------|-----------|-----------|-----------|-------------|-------------|
E|-----------|-----------|-----------|-----------|-------------|-------------|

E|-----------|-----------|-----------|-----------|-------------|-------------|
B|-----------|-----------|-----------|-----------|-------------|-------------|
|7-7-7------|let ring---|-----------|-----------|-------------|-------------|
|7-7-7------|let ring---|-----------|-----------|-------------|-------------|
E|-----------|-----------|-----------|-----------|-------------|-------------|
B|-----------|-----------|-----------|-----------|-------------|-------------|
Otros videos de esta canción
    0 exhibiciones
      • ½ Tono
      • A
      • Bb
      • B
      • C
      • Db
      • D
      • Eb
      • E
      • F
      • F#
      • G
      • Ab
    • Agregar a la lista

    Afinação da cifra

    Afinador online

      Ops (: Contenido disponible solo en portugués.
      OK