Cifra Club

Walk

Zornik

Cifrado: Principal (guitarra y guitarra eléctrica)
Selo Cifra Club: esta cifra foi revisada para atender aos critérios oficiais da nossa Equipe de Qualidade.
tono: C
Intro 'crunch sound'

E|-------------------------------------------|
B|--5-5-5-5-5-5-5---6-6-6-6-6-6-6------------|
G|--5-5-5-5-5-5-5---5-5-5-5-5-5-5------------|
D|-------------------------------------------|
A|-------------------------------------------|
E|-------------------------------------------|

E|-------------------------------------------|
B|--5-5-5-5-5-5-5---6-6-6-6-6-6-6------------|
G|--5-5-5-5-5-5-5---5-5-5-5-5-5-5------------|
D|-------------------------------------------|
A|-------------------------------------------|
E|-------------------------------------------|

E|-------------------------------------------|
B|-<13>--p| inch-harmonic----------------------|
G|-------------------------------------------|
D|-------------------------------------------|
A|-------------------------------------------|
E|-------------------------------------------|

Distortion gitaar

E|-------------------------------------------|
B|-------------------------------------------|
G|-------4-----------------------------------|
D|-5-5-5-2-5-5-------------------------------|
A|-3-3-3---3-3--3-3-3-5-3-3------------------|
E|--------------1-1-1-3-1-1------------------|

E|-------------------------------------------|
B|-------------------------------------------|
G|-------4-----------------------------------|
D|-5-5-5-2-5-5-------------------------------|
A|-3-3-3---3-3--5-5-5-5-5-5------------------|
E|--------------3-3-3-3-3-3------------------|

E|-------------------------------------------|
B|-------------------------------------------|
G|-------4-----------------------------------|
D|-5-5-5-2-5-5--10-10-10-12-10-10------------|
A|-3-3-3---3-3--8--8--8--10-8--8-------------|
E|-------------------------------------------|

E|-------------------------------------------|
B|-------------------------------------------|
G|-------4-----------------------------------|
D|-5-5-5-2-5-5-------------------------------|
A|-3-3-3---3-3--5-5-5-5---5------------------|
E|--------------3-3-3-3---3------------------|

clean

E|-------------------------------------------|
B|--5-5-5-5-5-5-5---6-6-6-6-6-6-6------------|
G|--5-5-5-5-5-5-5---5-5-5-5-5-5-5------------|
D|-------------------------------------------|
A|-------------------------------------------|
E|-------------------------------------------|

E|-------------------------------------------|
B|--5-5-5-5-5-5-5---6-6-6-6-6-6-6------------|
G|--5-5-5-5-5-5-5---5-5-5-5-5-5-5------------|
D|-------------------------------------------|
A|-------------------------------------------|
E|-------------------------------------------|
verse 1 'Future goals, don't mean a thing'
E|-------------------------------------------|
B|--5-5-5-5-5-5-5---6-6-6-6-6-6-6------------|
G|--5-5-5-5-5-5-5---5-5-5-5-5-5-5------------|
D|-------------------------------------------|
A|-------------------------------------------|
E|-------------------------------------------|
'They don't mean a thing, unless you bring it on '
E|-------------------------------------------|
B|--5-5-5-5-5-5-5---6-6-6-6-6-6-6------------|
G|--5-5-5-5-5-5-5---5-5-5-5-5-5-5------------|
D|-------------------------------------------|
A|-------------------------------------------|
E|-------------------------------------------|
'And every war, kills everyone '
E|-------------------------------------------|
B|--5-5-5-5-5-5-5---6-6-6-6-6-6-6------------|
G|--5-5-5-5-5-5-5---5-5-5-5-5-5-5------------|
D|-------------------------------------------|
A|-------------------------------------------|
E|-------------------------------------------|
'cause we're all part of the monstrosity'
E|-------------------------------------------|
B|--5-5-5-5-5-5-5---6-6-6-6-6-6-6------------|
G|--5-5-5-5-5-5-5---5-5-5-5-5-5-5------------|
D|-------------------------------------------|
A|-------------------------------------------|
E|-------------------------------------------|
( solo melody 'clean')        ^ @ background
E|------8--------8--------8--------8---------|
B|--5-6------5-6------5-6------5-6-----------|
G|-------------------------------------------|
D|-------------------------------------------|
A|-------------------------------------------|
E|-------------------------------------------|

E|------8--------8--------8--------8---------|
B|--5-6------5-6------5-6------5-6-----------|
G|-------------------------------------------|
D|-------------------------------------------|
A|-------------------------------------------|
E|-------------------------------------------|

E|------8--------8--------8--------8---------|
B|--5-6------5-6------5-6------5-6-----------|
G|-------------------------------------------|
D|-------------------------------------------|
A|-------------------------------------------|
E|-------------------------------------------|

E|------8--------8--------8--------8---------|
B|--5-6------5-6------5-6------5-6-----------|
G|-------------------------------------------|
D|-------------------------------------------|
A|-------------------------------------------|
E|-------------------------------------------|

E|------8--------8--------8--------8---------|
B|--5-6------5-6------5-6------5-6-----------|
G|-------------------------------------------|
D|-------------------------------------------|
A|-------------------------------------------|
E|-------------------------------------------|

E|------8--------8--------8--------8---------|
B|--5-6------5-6------5-6------5-6-----------|
G|-------------------------------------------|
D|-------------------------------------------|
A|-------------------------------------------|
E|-------------------------------------------|

E|------8--------8--------8--------8---------|
B|--5-6------5-6------5-6------5-6-----------|
G|-------------------------------------------|
D|-------------------------------------------|
A|-------------------------------------------|
E|-------------------------------------------|

E|------8--------8--------8------------------|
B|--5-6------5-6------5-6--------------------|
G|-------------------------------------------|
D|-------------------------------------------|
A|-------------------------------------------|
E|-------------------------------------------|

chorus ( distortion )

'then you walk'
E|-------------------------------------------|
B|-------------------------------------------|
G|-------4-----------------------------------|
D|-5-5-5-2-5-5-------------------------------|
A|-3-3-3---3-3--3-3-3-5-3-3------------------|
E|--------------1-1-1-3-1-1------------------|

E|-------------------------------------------|
B|-------------------------------------------|
G|-------4-----------------------------------|
D|-5-5-5-2-5-5-------------------------------|
A|-3-3-3---3-3--5-5-5-5-5-5------------------|
E|--------------3-3-3-3-3-3------------------|

E|-------------------------------------------|
B|-------------------------------------------|
G|-------4-----------------------------------|
D|-5-5-5-2-5-5--10-10-10-12-10-10------------|
A|-3-3-3---3-3--8--8--8--10-8--8-------------|
E|-------------------------------------------|

E|-------------------------------------------|
B|-------------------------------------------|
G|-------4-----------------------------------|
D|-5-5-5-2-5-5-------------------------------|
A|-3-3-3---3-3--5-5-5-5-5-5------------------|
E|--------------3-3-3-3-3-3------------------|

 second guitar( bridge part distrotion) sweep this part

E|--12-12-12-12-12-12-12-12-12-12-12-12-12---|
B|--x--x--x--x--x--x--x--x--x--x--x--x--x----|
G|--9--9--9--9--9--9--9--9--9--9--9--9--9----|
D|-------------------------------------------|
A|-------------------------------------------|
E|-------------------------------------------|
( solo melody 'clean') 
E|------8--------8--------8--------8---------|
B|--5-6------5-6------5-6------5-6-----------|
G|-------------------------------------------|
D|-------------------------------------------|
A|-------------------------------------------|
E|-------------------------------------------|

E|------8--------8--------8--------8---------|
B|--5-6------5-6------5-6------5-6-----------|
G|-------------------------------------------|
D|-------------------------------------------|
A|-------------------------------------------|
E|-------------------------------------------|
verse 2 " Bending words is what you do "     
E|------8--------8--------8--------8---------|
B|--5-6------5-6------5-6------5-6-----------|
G|-------------------------------------------|
D|-------------------------------------------|
A|-------------------------------------------|
E|-------------------------------------------|

E|------8--------8--------8--------8---------|
B|--5-6------5-6------5-6------5-6-----------|
G|-------------------------------------------|
D|-------------------------------------------|
A|-------------------------------------------|
E|-------------------------------------------|

E|------8--------8--------8--------8---------|
B|--5-6------5-6------5-6------5-6-----------|
G|-------------------------------------------|
D|-------------------------------------------|
A|-------------------------------------------|
E|-------------------------------------------|

E|------8--------8--------8--------8---------|
B|--5-6------5-6------5-6------5-6-----------|
G|-------------------------------------------|
D|-------------------------------------------|
A|-------------------------------------------|
E|-------------------------------------------|

E|------8--------8--------8--------8---------|
B|--5-6------5-6------5-6------5-6-----------|
G|-------------------------------------------|
D|-------------------------------------------|
A|-------------------------------------------|
E|-------------------------------------------|

E|------8--------8--------8--------8---------|
B|--5-6------5-6------5-6------5-6-----------|
G|-------------------------------------------|
D|-------------------------------------------|
A|-------------------------------------------|
E|-------------------------------------------|

E|------8--------8--------8--------8---------|
B|--5-6------5-6------5-6------5-6-----------|
G|-------------------------------------------|
D|-------------------------------------------|
A|-------------------------------------------|
E|-------------------------------------------|

E|------8--------8--------8------------------|
B|--5-6------5-6------5-6--------------------|
G|-------------------------------------------|
D|-------------------------------------------|
A|-------------------------------------------|
E|-------------------------------------------|

chorus ( distortion )

'then you walk'
E|-------------------------------------------|
B|-------------------------------------------|
G|-------4-----------------------------------|
D|-5-5-5-2-5-5-------------------------------|
A|-3-3-3---3-3--3-3-3-5-3-3------------------|
E|--------------1-1-1-3-1-1------------------|

E|-------------------------------------------|
B|-------------------------------------------|
G|-------4-----------------------------------|
D|-5-5-5-2-5-5-------------------------------|
A|-3-3-3---3-3--5-5-5-5-5-5------------------|
E|--------------3-3-3-3-3-3------------------|

E|-------------------------------------------|
B|-------------------------------------------|
G|-------4-----------------------------------|
D|-5-5-5-2-5-5--10-10-10-12-10-10------------|
A|-3-3-3---3-3--8--8--8--10-8--8-------------|
E|-------------------------------------------|

E|-------------------------------------------|
B|-------------------------------------------|
G|-------4-----------------------------------|
D|-5-5-5-2-5-5-------------------------------|
A|-3-3-3---3-3--5-5-5-5-5-5------------------|
E|--------------3-3-3-3-3-3------------------|

chorus repeat

E|-------------------------------------------|
B|-------------------------------------------|
G|-------4-----------------------------------|
D|-5-5-5-2-5-5-------------------------------|
A|-3-3-3---3-3--3-3-3-5-3-3------------------|
E|--------------1-1-1-3-1-1------------------|

E|-------------------------------------------|
B|-------------------------------------------|
G|-------4-----------------------------------|
D|-5-5-5-2-5-5-------------------------------|
A|-3-3-3---3-3--5-5-5-5-5-5------------------|
E|--------------3-3-3-3-3-3------------------|

E|-------------------------------------------|
B|-------------------------------------------|
G|-------4-----------------------------------|
D|-5-5-5-2-5-5--10-10-10-12-10-10------------|
A|-3-3-3---3-3--8--8--8--10-8--8-------------|
E|-------------------------------------------|

E|-------------------------------------------|
B|-------------------------------------------|
G|-------4-----------------------------------|
D|-5-5-5-2-5-5-------------------------------|
A|-3-3-3---3-3--5-5-5-5-5-5------------------|
E|--------------3-3-3-3-3-3------------------|

bridge part clean

E|-------------------------------------------|
B|--5-5-5-5-5-5-5---6-6-6-6-6-6-6------------|
G|--5-5-5-5-5-5-5---5-5-5-5-5-5-5------------|
D|-------------------------------------------|
A|-------------------------------------------|
E|-------------------------------------------|

E|-------------------------------------------|
B|--5-5-5-5-5-5-5---6-6-6-6-6-6-6------------|
G|--5-5-5-5-5-5-5---5-5-5-5-5-5-5------------|
D|-------------------------------------------|
A|-------------------------------------------|
E|-------------------------------------------|

distortion 
E|-------------------------------------------|
B|-------------------------------------------|
G|-------------------------------------------|
D|-------2-----------------------------------|
A|-3-3-3---3-3--8--8--8-10-8--8--------------|
E|-------------------------------------------|

E|-------------------------------------------|
B|-------------------------------------------|
G|-------------------------------------------|
D|-------2-----------------------------------|
A|-3-3-3---3-3-------------------------------|
E|--------------3-3-3-3-3-3------------------|

chorus ( distortion )

'then you walk'
E|-------------------------------------------|
B|-------------------------------------------|
G|-------4-----------------------------------|
D|-5-5-5-2-5-5-------------------------------|
A|-3-3-3---3-3--3-3-3-5-3-3------------------|
E|--------------1-1-1-3-1-1------------------|

E|-------------------------------------------|
B|-------------------------------------------|
G|-------4-----------------------------------|
D|-5-5-5-2-5-5-------------------------------|
A|-3-3-3---3-3--5-5-5-5-5-5------------------|
E|--------------3-3-3-3-3-3------------------|

E|-------------------------------------------|
B|-------------------------------------------|
G|-------4-----------------------------------|
D|-5-5-5-2-5-5--10-10-10-12-10-10------------|
A|-3-3-3---3-3--8--8--8--10-8--8-------------|
E|-------------------------------------------|

E|-------------------------------------------|
B|-------------------------------------------|
G|-------4-----------------------------------|
D|-5-5-5-2-5-5-------------------------------|
A|-3-3-3---3-3--5-5-5-5-5-5------------------|
E|--------------3-3-3-3-3-3------------------|

chorus repeat with melody

E|-------------------------------------------|
B|-------------------------------------------|
G|-------4-----------------------------------|
D|-5-5-5-2-5-5-------------------------------|
A|-3-3-3---3-3--3-3-3-5-3-3------------------|
E|--------------1-1-1-3-1-1------------------|

E|-------------------------------------------|
B|-------------------------------------------|
G|-------4-----------------------------------|
D|-5-5-5-2-5-5-------------------------------|
A|-3-3-3---3-3--5-5-5-5-5-5------------------|
E|--------------3-3-3-3-3-3------------------|

E|-------------------------------------------|
B|-------------------------------------------|
G|-------4-----------------------------------|
D|-5-5-5-2-5-5--10-10-10-12-10-10------------|
A|-3-3-3---3-3--8--8--8--10-8--8-------------|
E|-------------------------------------------|

E|-------------------------------------------|
B|-------------------------------------------|
G|-------4-----------------------------------|
D|-5-5-5-2-5-5-------------------------------|
A|-3-3-3---3-3--5-5-5-5-5-5------------------|
E|--------------3-3-3-3-3-3------------------|

melody second guitar distortion

E|--/15--/13--/12--/10-----------------------|
B|-------------------------------------------|
G|-------------------------------------------|
D|-------------------------------------------|
A|-------------------------------------------|
E|-------------------------------------------|

E|--/15--/13--/12--/10-----------------------|
B|-------------------------------------------|
G|-------------------------------------------|
D|-------------------------------------------|
A|-------------------------------------------|
E|-------------------------------------------|
crunch
E|-------------------------------------------|
B|--5-5-5-5-5-5-5---6-6-6-6-6-6-6------------|
G|--5-5-5-5-5-5-5---5-5-5-5-5-5-5------------|
D|-------------------------------------------|
A|-------------------------------------------|
E|-------------------------------------------|

E|-------------------------------------------|
B|--5-5-5-5-5-5-5---6-6-6-6-6-6-6------------|
G|--5-5-5-5-5-5-5---5-5-5-5-5-5-5------------|
D|-------------------------------------------|
A|-------------------------------------------|
E|-------------------------------------------|

E|-------------------------------------------|
B|--5-5-5-5-5-5-5---6-6-6-6-6-6-6------------|
G|--5-5-5-5-5-5-5---5-5-5-5-5-5-5------------|
D|-------------------------------------------|
A|-------------------------------------------|
E|-------------------------------------------|

E|-------------------------------------------|
B|--5-5-5-5-5-5-5---6-| let ring wawah effect--|
G|--5-5-5-5-5-5-5---5-| let ring wawah effect--|
D|-------------------------------------------|
A|-------------------------------------------|
E|-------------------------------------------|
Otros videos de esta canción
    0 exhibiciones
      • ½ Tono
      • A
      • Bb
      • B
      • C
      • Db
      • D
      • Eb
      • E
      • F
      • F#
      • G
      • Ab
    • Agregar a la lista

    Afinação da cifra

    Afinador online

      Ops (: Contenido disponible solo en portugués.
      OK