Cifra Club

Maquillaje

Zurdok

Cifrado: Principal (guitarra y guitarra eléctrica)
Selo Cifra Club: esta cifra foi revisada para atender aos critérios oficiais da nossa Equipe de Qualidade.
tono: D
Intro

E-|--------------------------------|-
B-|--------------------------------|-
G-|--------------------------------|-
D-|-----5-------5------5-------5-3-|-
A-|--5------5-3----3-1-----5-3-----|-
D-|--------------------------------|-

E-|--------------------------------------|-
B-|--------------------------------------|-
G-|--------------------------------------|-
D-|-----5-------5------5-----------------|-
A-|--5------5-3----3-1-----5-3--5-5-5-5--|-
D-|--------------------------------------|-

Este es el BAJEO para guitarra
E-|----------------------------------|-
B-|----------------------------------|-
G-|----------------------------------|-
D-|-0-0--0-3-3--x-3-3---3-5-5---7-8--|-
A-|-0-0--0-3-3--x-3-3---3-5-5---7-8--|-
D-|-0-0--0-3-3--x-3-3---3-5-5---7-8--|-

guitarra

E-|--------------------------------|-
B-|--------------------------8~-7~-|-
G-|----8-7~----8-7~----8-7~--------|-
D-|--7-------7-------7-------------|-
A-|--------------------------------|-
D-|--------------------------------|-

VERSO (bajeo)

CORO

Tu parada y yo te miré
No fué todo pero no sé por qué

E-|---------------------------------|-
B-|---------------------------------|-
G-|---------------------------------|-
D-|--5-5--7-7-8-8--7-x-8-8-8-8--3-4-|-
A-|--5-5--7-7-8-8--7-x-8-8-8-8--3-4-|-
D-|--5-5--7-7-8-8--7-x-8-8-8-8--3-4-|-

NO SÉ, NO SÉ, POR QUÉ
E-|---------------------------------|-
B-|---------------------------------|-
G-|---------------------------------|-
D-|--5-5--7-7-8-8--7-x-8-8-8-8--3-4-|-
A-|--5-5--7-7-8-8--7-x-8-8-8-8--3-4-|-
D-|--5-5--7-7-8-8--7-x-8-8-8-8--3-4-|-

G  O:

E-|---------------------------------------|-
B-|--6h8-8-8~-6h8-8-8~-6h8-8-8~-6h8-8-8~--|-
G-|---------------------------------------|-
D-|---------------------------------------|-
A-|---------------------------------------|-
D-|---------------------------------------|-


E-|----------------------------------------------------------------------------|-
B-|--9h11-11-11~-9h11-11-11~-9h11-11-11~-9h11-11-11-11-11-11-11---11-10-11-8~--|-
G-|----------------------------------------------------------------------------|-
D-|----------------------------------------------------------------------------|-
A-|----------------------------------------------------------------------------|-
D-|----------------------------------------------------------------------------|-

E-|---------------------------------------|-
B-|--6h8-8-8~-6h8-8-8~--3--3--3-7b8r7-----|-
G-|-----------------------------------8---|-
D-|---------------------------------------|-
A-|---------------------------------------|-
D-|---------------------------------------|-

E-|------------------------------------------------|-
B-|--6h8-8-8~-6h8-8-8~-9h11-11-11-11-11-11--11/13--|-
G-|------------------------------------------------|-
D-|------------------------------------------------|-
A-|------------------------------------------------|-
D-|------------------------------------------------|-

PARTE FINAL

   Si te echo de......

E-|-------------------------|-
B-|-------------------------|-
G-|-------------------------|-
D-|--5-5-5---3-3-3---1-1-1--|-
A-|--5-5-5---3-3-3---1-1-1--|-
D-|--5-5-5---3-3-3---1-1-1--|-


Letra
Tu me haces muy feliz
que me tomes de la mano
si alguna vez me ofrecí
esta vez ya no
Tu parada y yo te miré
no fué todo pero no sé por qué

no sé, no sé, por qué,
no sé, no sé, por qué.

De pronto te tengo aquí
me gustaría verte de rodillas
para que sientes lo que sentí
y vivas mis pesadillas
Tu parada y yo te miré
no fué todo pero no sé por qué

no sé, no sé, por qué
no sé, no sé, por qué

en el fondo de mi
en el fondo del bar

Y me hace muy feliz
que al fin te encontré
y ahora que estás aquí
alimentando mi ser de tí

Si te necesito pero
no estás aquí
si te echo de menos pero
no estás aquí
si te necesito pero
no estás aquí
si te echo de menos pero
no estás aquí
Otros videos de esta canción
    6 exhibiciones
      • ½ Tono
      • A
      • Bb
      • B
      • C
      • Db
      • D
      • Eb
      • E
      • F
      • F#
      • G
      • Ab
    • Agregar a la lista

    Afinação da cifra

    Afinador online

      Ops (: Contenido disponible solo en portugués.
      OK