Cifra Club

Nadie te quiere ver

Zurdok

Cifrado: Principal (guitarra y guitarra eléctrica)
Selo Cifra Club: esta cifra foi revisada para atender aos critérios oficiais da nossa Equipe de Qualidade.
tono: Bm
introducción:

 Nadie esta escuchando....
    A A/Ab   F    C      E7
E|-------------------------------------------|
B|-------------------------------------------|
G|-------------------5---7--7----------------|
D|--7-7-7-7---3-3--2-5-/-6--6----------------|
A|--7-7-7-7---3-3--3-3-/-7--7----------------|
E|--7-7-6-6---3-3----------------------------|

 Ya lo vez te lo dijo...
     A       F       G#       D#
E|------------------------------------------------|
B|------------------------------------------------|
G|--------------------8--8--8---------------------|
D|---7--7--10-10-10--10-10-10--8-10-11-10---------|
A|---7--7---8--8--8--11-11-11--6-6--6--6----------|
E|---7--7-----------------------------------------|

Continua
    G#       G  F#  F      G G# A#
E|----------------------------------------------|
B|----------------------------------------------|
G|----------------------------------------------|
D|---6-6-6--6/-5/-4/-3/-----5/-6/-8-------------|
A|---6-8-6--6/-5/-4/-3/-----5/-6/-8-------------|
E|---6-6-6--6/-5/-4/-3/-----5/-6/-8-------------|

coro
Nadie te quiere ver....

  D D# A# G#   A#   C    A# G#        ?
E|-----------------------------------------------|
B|-----------------------------------------------|
G|--------s| e repite-2 veces-y-luego--esto--------
D|-0-1-/-8-6-6-6h8-8-10-10-8-6-8---/---6--8-------|
A|-0-1-/-8-6-6-6h8-8-10-10-8-6-8---/---6--8-------|
E|-0-1-/-8-6-6-6h8-8-10-10-8-6-8---/---7--9-------|

Se repite todo
y acaba asi

E|-----------------|
B|-----------------|
G|-----------------|
D|--0-1--0--1------|
A|--0-1--0--1------|
E|--0-1--0--1------|
Otros videos de esta canción
    70 exhibiciones
      • ½ Tono
      • Am
      • Bbm
      • Bm
      • Cm
      • C#m
      • Dm
      • Ebm
      • Em
      • Fm
      • F#m
      • Gm
      • G#m
    • Agregar a la lista

    Afinação da cifra

    Afinador online

      Ops (: Contenido disponible solo en portugués.
      OK