Cifra Club

No Importa

Zurdok

Cifrado: Principal (guitarra y guitarra eléctrica)
Selo Cifra Club: esta cifra foi revisada para atender aos critérios oficiais da nossa Equipe de Qualidade.
tono: D
Fil 1
   A      D11  E2    D11
E|-----------------X----5-------|
B|---2--X---3----5-X----3-------|
G|--2--X---0----0--X---0--------|
D|--2--X--4----5-X---4----------|
A|--0--X--5----7-X---5----------|
E|------------------------------|
verso 1 con fil 1

   E                     E          E A         G      D      A
Todos con su extensi¢n forman una se---rie y... cortan la imaginaci¢n
 Em7               D A   Em7             D A
no importa a donde vas, no importa a donde vas,
 Em7               D A   Em                F  E
no importa a donde vas, no importa a donde vas

junto Con el Fil 1
E|----------------------------------------------------|
B|----------------------------------------------------|
G|-----5b--------------------------5b-----------------|
D|-5-7-----7-------------------5-7----5---------------|
A|-------------------5b------------------------5b-----|
E|-------------3--5------5--3------------3--5-----5-3-|

se repite el coro

y entra esta parte
"No importa a donde vas"
  A   F     B7    A         F        B7
E|--------------------------------------------------|
B|-------------0------------------------0-----------|
G|-2-----2----2---2--2--2-2-------2----2------------|
D|-2----3----1----2--2--2-2-----3-----1-------------|
A|-0---3----2-----0--0--0-0----3-----2--------------|
E|----1----------------------1----------------------|
Otros videos de esta canción
    125 exhibiciones
      • ½ Tono
      • A
      • Bb
      • B
      • C
      • Db
      • D
      • Eb
      • E
      • F
      • F#
      • G
      • Ab
    • Agregar a la lista

    Afinação da cifra

    Afinador online

      Ops (: Contenido disponible solo en portugués.
      OK