Cifra Club

Nos vemos en la luna

Zurdok

Cifrado: Principal (guitarra y guitarra eléctrica)
Selo Cifra Club: esta cifra foi revisada para atender aos critérios oficiais da nossa Equipe de Qualidade.
tono: Am
E|--------------------|
 *Nos vemos en la luna*


 Ok al igual que en la canción de 'No encuentro....' este riff se escucha
 en toda la canción.

E|--------------------|
B|--------------------|
G|--------------------|
D|--------------------|
A|-7-5-7--7-5-7-3-5-7-|
E|--------------------|


 Y asi se va hasta cuando se escucha la voz por radio.
 Ahi vas algo asi.

E|-------------------------|
B|-------------------------|
G|-------------------------|
D|-------------------------|
A|-------------------------|
E|-0-0-2---1-3-1-3-1-3-1-3-| <=Este ultimo mov. debes hacerlo como endemoniado
                               ya que es rapidisimo.


 Despues hay un solo con sintetizador

E|-------------------------------|
B|-------------------------------|
G|-7/10---------10--------10-----|
D|-------12---------12-----------|
A|----------11---------10-----9--|
E|-------------------------------|
Otros videos de esta canción
    8 exhibiciones
      • ½ Tono
      • Am
      • Bbm
      • Bm
      • Cm
      • C#m
      • Dm
      • Ebm
      • Em
      • Fm
      • F#m
      • Gm
      • G#m
    • Agregar a la lista

    Afinação da cifra

    Afinador online

      Ops (: Contenido disponible solo en portugués.
      OK