Cifra Club

Pared

Zurdok

Cifrado: Principal (guitarra y guitarra eléctrica)
Selo Cifra Club: esta cifra foi revisada para atender aos critérios oficiais da nossa Equipe de Qualidade.
tono: G
        INTRO Y VERSO
 G  
E|--------------------------|
B|----8------------------7--|
G|---------7---------7------|
D|--5---55---5-5-7-8---8----|
A|--------------------------|
E|--------------------------|

       CORO
 G   A#  A  G  
E|--------------------------/10v--|
B|----------8-10-10/11-10-8-------|
G|--7-5---7-----------------------|
D|------8-------------------------|
A|--------------------------------|
E|--------------------------------|

E|--10-------------------/10v--|
B|-------8-10-10/11-10-8-------|
G|-----7-----------------------|
D|-----------------------------|
A|-----------------------------|
E|-----------------------------|


 Solo
E|--------------7-5-7-------/10-10-8-10-8--|
B|--8-7-8---5-7---------5-7----------------|
G|--------4-----------4--------------------|
D|-----------------------------------------|
A|-----------------------------------------|
E|-----------------------------------------|

E|--------------7-5-7-------/10-10-8-10-8--|
B|--8-7-8---5-7---------5-7----------------|
G|--------4-----------4--------------------|
D|-----------------------------------------|
A|-----------------------------------------|
E|-----------------------------------------|


despues del solo,
se toca en el coro esto:
G   A#  A  G  
E|--------------------|
B|--------------------|
G|-5b-------------5b--|
D|-----7h8p7----------|
A|-----------10-9-----|
E|--------------------|
Otros videos de esta canción
    38 exhibiciones
      • ½ Tono
      • A
      • Bb
      • B
      • C
      • Db
      • D
      • Eb
      • E
      • F
      • F#
      • G
      • Ab
    • Agregar a la lista

    Afinação da cifra

    Afinador online

      Ops (: Contenido disponible solo en portugués.
      OK