Cifra Club

Platiqu Con Mi Pistola

Zurdok

Tab de bajo: Principal
Selo Cifra Club: esta cifra foi revisada para atender aos critérios oficiais da nossa Equipe de Qualidade.
Canción: Platiqué con mi pistola.
Transcritor: HateFizt.

fácil y no requiere de tanto pedo para aprenderse; detalles no hacen falta y sólo consta 
afinar tu instrumento fuera de la afinación standard, ya que la rola es pesadona.

B - Drop to G.
D - Drop to F.

Introducción.

(Únicamente el intro' de piano).

Pre-verso.

F|------------------------------------------|
C|------------------------------------------|
G|-5------------------5---------------------|
C|---6-5-3-0-3-0-3-0----6-5-3-0-3-3-x-x-3-3-|

F|----------------------|
C|----------------------|
G|-5--------------------|
C|----6-5-3-0-3-3-0~~~~-|
                        ¡Te... encierran!

Verso.

F|--------------------|------------------------|
C|--------------------|------------------------|¡Si usted tiene algún
G|-----3-5------3-5---|---------0-3-0-5--------|problema, platique
C|-0-4-----0--4-----4-|-0-3-4-5---------4---0--|con mi pistola!

Puente al segundo verso.

F|------------------------------------------|
C|------------------------------------------|
G|-5------------------5---------------------|
C|---6-5-3-0-3-0-3-0----6-5-3-0-3-3-x-x-3-3-|
             ¡Hey, hey!               ¡Vamos a platicar!

F|-----------------------------------------------------------------|
C|-----------------------------------------------------------------| (Bate-
G|-5---3-5---0-3-0-5----5---3-5---0-2-0-3-------------0-3-0-5------|  ría)
C|---6---------------4----4-----4---------4--0-3-4-5----------4--0-|

Eso es todo lo que necesitas saber a lo largo de la primera parte;
ahora vamos con el final

F|-----------------------------------------------------------------------|
C|-----------------------------------------------------------------------|
G|-----------------------------------------------------------------------|
C|-0-0-2-3-2-0-x-x-0-2-3-2-0-x-x-0-2-3-2-0-x-x-0-0-x-x-0-0-x-x-0-2-3-2-0-|

----------------------------------------------------------------------------

Lírica.

Te encierran; te bajan,
"¡hey! ¡Yo no he hecho nada!"
Se acerca un policía;
te hecha una mirada.
Te dice que te bajes,
tú sólo le dices:
"¡Hola, si usted tiene algún problema, platique con mi pistola!"

Caminas por la calle,
de lejos ves a tu novia;
te acercas para encontrarla,
descubres que no está sola.
Al extraño acompañante tú sólo le dices:
"¡Hola, si usted tiene algún problema, platique con mi pistola!"

¡Hey, hey!, ¡vamos a platicar!
¡Hey!

Te esfuerzas, trabajas;
¡Hey!, ¡no ganas nada!
Te gritan todo el día,
no hechas la mirada.
¡Ahora estás despedido!
Tú sólo les dices:
"¡Hola, si usted tiene algún problema, platique con mi pistola!"

Por fin te llegó el día en que te visitó la Muerte;
te dijo: "¡Tú ya cumpliste,
ahora conmigo vente!"
A la Muerte con respeto tú sólo le dices:
"¡Hola, si usted tiene algún problema, platique con mi pistola!"

¡Hey!, ¡vamos a platicar!
¡Hey, hey!, ¡vamos a platicar!
¡Hey!, ¡vamos a platicar!

(¡Se) ¡Lo que yo no fui!
(fue!) ¡Lo que yo no oí!
(¡Ah!) ¡Lo que no entendí!
(¡Se) ¡Se (fue!) Fue!

(¡Se) ¡Lo que yo no fui!
(fue!) ¡Lo que yo no oí!
(¡Ah!) ¡Lo que no entendí!
(¡Se) ¡Se (fue!) Fue!

----------------------------------------------------------------------------

Allí tienen todo.

Eso es, ¿fácil, no?
Cometarios para la tab' o ésta gran canción, bienvenidos todos. ;).
Chequeen las de Gallito Inglés, por el camino. Gracias.
Otros videos de esta canción
    34 exhibiciones

    Afinação da cifra

    Afinador online

    Ops (: Contenido disponible solo en portugués.
    OK