Cifra Club

Si me advertí

Zurdok

Cifrado: Principal (guitarra y guitarra eléctrica)
Selo Cifra Club: esta cifra foi revisada para atender aos critérios oficiais da nossa Equipe de Qualidade.
tono: Bm
E
Si me advertí
            A
que no debí ceder
                D    B
y asi ya no caer tanto

E
Pero sigo aqui
              A
pensando en que aprendí
                  D      B
para poder avanzar juntos


Riff A:
[Antes del coro]

        B            A   E     F#   G
E|---------|----------|-----|-----|----|
B|---------|----------|-----|-----|----|
G|---------|----------|-----|-----|----|
D|---------|----------|-----|-----|----|
A|--9-x-x--|--7----7--|--2--|--4--|-5--|
E|--7-x-x--|--5--5-5--|--0--|--2--|-3--|

Riff B:
[Coro]

     B           A         E     F#      G
E|---------|------------|-----|-------|-----|
B|---------|------------|-----|-------|-----|
G|---------|------------|-----|-------|-----|
D|-4-x-----|--2-----2---|-----|-------|-----|
A|-2-x-----|--0--0p3----|--2--|--4----|--5--|
E|---------|------------|--0--|--2----|--3--|

B       A           E
Pues que mal que no lo ves
G             A
a un lado me puedes tener
B           A           E
y sigo aqui pensando en ti
G             A
en todo lo que te dí...

E
Si me advertí
                     A
que el error te hace crecer
               D
¿cuántos debo cometer?
  B
dime

E
Y si no está en mi
                       A
qué tan cerca estoy de tí
                     D
lo que busques aquí está
   B
¿cuándo?


Riff A

Riff B sobre el coro.

B       A           E
Pues que mal que no lo ves
G             A
a un lado me puedes tener
B           A           E
y sigo aqui pensando en ti
G             A
en todo lo que te dí...

y sigo aqui pensando en ti....
Debo ver para saber
que hiciste para seguir
y vivir con el placer
de mentir y mentir
Otros videos de esta canción
    415 exhibiciones
      • ½ Tono
      • Am
      • Bbm
      • Bm
      • Cm
      • C#m
      • Dm
      • Ebm
      • Em
      • Fm
      • F#m
      • Gm
      • G#m
    • Agregar a la lista

    Afinação da cifra

    Afinador online

      Ops (: Contenido disponible solo en portugués.
      OK