Cifra Club

From Yesterday

Thirty Seconds To Mars

Tab de bajo: Versão 2
Acompaña nuestras novedades de Cifra Club en español.
¡Sigue nuestro perfil en Instagram!
Tunung: Eb Standard (GbDbAbEb)

No Bass For Intro or Verse

Pre-Chorus
Gb|---------------------------------------------------------------------------|
Db|---------------------------------------------------------------------------|
Ab|---------------------------------------------------------------------------|
Eb|-4-0-0--------------0-4-4--------------4-0-0--------------0-4~-------------|

Chorus
Gb|-----------------------------------------------------------------|
Db|-----------------------------------------------------------------|
Ab|-----------------------------------------------------------------|
Eb|-7-7-7-7-7-7-7-7-7-7-7-7-7-7-7-7-2-2-2-2-2-2-2-2-2-2-2-2-2-2-2-2-|

Gb|-----------------------------------------------------------------|
Db|-----------------------------------------------------------------|
Ab|-------------------------------------------------7-7-7-7-7-7-7-7-|
Eb|-4-4-4-4-4-4-4-4-4-4-4-4-4-4-4-4-0-0-0-0-0-0-0-0-----------------|

Gb|-----------------------------------------------------------------|
Db|-----------------------------------------------------------------|
Ab|-----------------------------------------------------------------|
Eb|-7-7-7-7-7-7-7-7-7-7-7-7-7-7-7-7-2-2-2-2-2-2-2-2-2-2-2-2-2-2-2-2-|

Gb|-----------------------------------------------------------------|
Db|-----------------------------------------------------------------|
Ab|-----------------------------------------------------------------|
Eb|-0-0-0-0-0-0-0-0-0-0-0-0-0-0-0-0-2-2-2-2-2-2-2-2-2-2-2-2-2-2-2-2-|

Verse 2
Gb|-------------------------------------------------------------------|
Db|-------------------------------------------------------------------|
Ab|-7--7--7-7--7--7--7-7-7-7-7--11--11--11-11--11--11--11-11-11-11-11-| x2
Eb|-------------------------------------------------------------------|

Pre-Chorus 2
Gb|---------------------------------------------------------------------------|
Db|---------------------------------------------------------------------------|
Ab|---------------------------------------------------------------------------|
Eb|-4-0-0--------------0-4-4--------------4-0-0--------------1/4~-------------|

Chorus 2
Gb|-----------------------------------------------------------------|
Db|-----------------------------------------------------------------|
Ab|-----------------------------------------------------------------|
Eb|-7-7-7-7-7-7-7-7-7-7-7-7-7-7-7-7-2-2-2-2-2-2-2-2-2-2-2-2-2-2-2-2-|

Gb|-----------------------------------------------------------------|
Db|-----------------------------------------------------------------|
Ab|-------------------------------------------------7-7-7-7-7-7-7-7-|
Eb|-4-4-4-4-4-4-4-4-4-4-4-4-4-4-4-4-0-0-0-0-0-0-0-0-----------------|

Gb|-----------------------------------------------------------------|
Db|-----------------------------------------------------------------|
Ab|-----------------------------------------------------------------|
Eb|-7-7-7-7-7-7-7-7-7-7-7-7-7-7-7-7-2-2-2-2-2-2-2-2-2-2-2-2-2-2-2-2-|

Gb|-----------------------------------------------------------------|
Db|-----------------------------------------------------------------|
Ab|-----------------------------------------------------------------|
Eb|-0-0-0-0-0-0-0-0-0-0-0-0-0-0-0-0-0-0-0-0-0-0-0-0-0-0-0-0-0-0-0-0-|

Gb|-----------------------------------------|
Db|-----------------------------------------|
Ab|-----------------------------------------|
Eb|-2-2-2-2-2-2-2-2/14-14-14-14-14-14-14-14-|

Bridge
Gb|--------------------------------------------------|
Db|--------------------------------------------------|
Ab|--------6-6-7-7----6-6-6-6-7-7-7------------------|
Eb|-4-4-----------------------------0-0----7-7--6-6--|

Gb|--------------------------------------------------|
Db|--------------------------------------------------|
Ab|--------6-6-7-7----6-6-6-6-7-7-7------------------|
Eb|-4-4-----------------------------0-0----7~---6-~--|

Gb|--------------------------------------------------|
Db|--------------------------------------------------|
Ab|--------6-6-7-7----6-6-6-6-7-7-7------------------|
Eb|-4-4-----------------------------0-0----7-7--6-6--|

Gb|-----------------------------------------------------------|
Db|-----------------------------------------------------------|
Ab|--------6-6-7-7----6-6-6-6-7-7-7---------------------------|
Eb|-4-4-----------------------------2-2-2-2-2-2-2-2-2-2-2-2-2-|

Now Play:
	Chorus 1
	Chorus 2

Gb|-------------------------------------|
Db|-------------------------------------|
Ab|--------6-6-7-7----6-6-6-6-7-7-7-----|
Eb|-4-4-----------------------------0-0-|
Composición de 30 Seconds to Mars
1 vistas

0 comentarios

Ver todos los comentarios

¿Lograste tocar?

0 Tocaron 0 Aún no

¡Graba un video tocando From Yesterday y envíanoslo!

00:00 / 00:00
Outros vídeos desta música
Repetir Calidad Automático
Outros vídeos desta música
00:00 / 00:00
Automático
OK