Cifra Club

Rolling In The Deep

Adele

Tab de bajo: Principal
(0:40)
G|----------------------------------------------------------------|
D|----------------------------------------------------------------|
A|----------------------------------------------------------------|
E|4-4-4-4-4-4-4-4-6-6-6-6-6-6-6-6-3-3-3-3-3-3-3-3-4-4-4-4-4-4-4-4-|

G|----------------------------------------------------------------|
D|----------------------------------------------------------------|
A|----------------------------------------------------------------|
E|4-4-4-4-4-4-4-4-6-6-6-6-6-6-6-6-3-3-3-3-3-3-3-3-4-4-4-4-3-3-3-3-|

Refrão:
G|----------------------------------------------------------------|
D|----------------------------------------------------------------|
A|----------------------------------------------------------------|
E|8-8-8-8-8-8-8-8-6-6-6-6-6-6-6-6-4-4-4-4-4-4-4-4-4-4-4-4-6-6-6-6-|

G|----------------------------------------------------------------|
D|----------------------------------------------------------------|
A|----------------------------------------------------------------|
E|8-8-8-8-8-8-8-8-6-6-6-6-6-6-6-6-4-4-4-4-4-4-4-4-4-4-4-4-6-6-6-6-|

(1:35)
G|----------------------------------------------------------------|
D|----------------------------------------------------------------|
A|----------------------------------------------------------------|
E|4-4-4-4-4-4-4-4-6-6-6-6-6-6-6-6-3-3-3-3-3-3-3-3-4-4-4-4-4-4-4-4-|

G|----------------------------------------------------------------|
D|----------------------------------------------------------------|
A|----------------------------------------------------------------|
E|4-4-4-4-4-4-4-4-6-6-6-6-6-6-6-6-3-3-3-3-3-3-3-3-4-4-4-4-3-3-3-3-|

Refrão:
G|----------------------------------------------------------------|
D|----------------------------------------------------------------|
A|----------------------------------------------------------------|
E|8-8-8-8-8-8-8-8-6-6-6-6-6-6-6-6-4-4-4-4-4-4-4-4-4-4-4-4-6-6-6-6-|

G|----------------------------------------------------------------|
D|----------------------------------------------------------------|
A|----------------------------------------------------------------|
E|8-8-8-8-8-8-8-8-6-6-6-6-6-6-6-6-4-4-4-4-4-4-4-4-4-4-4-4-6-6-6-6-|

Ponte:
G|----------------------------------------------------------------|
D|----------------------------------------------------------------|
A|----------------------------------------------------------------|
E|4-4-4-4-4-4-4-4-6-6-6-6-6-6-6-6-8-8-8-8-8-8-8-8-6-6-6-6-6-6-6-6-|

G|------------------------------------------------------------------|
D|------------------------------------------------------------------|
A|------------------------------------------------------------------|
E|4-4-4-4-4-4-4-4-4-4-4-4-4-4-4-4-6-6-6-6-6-6-6-6-6-6-6-6-6-6-6-6-8~|

(2:49)
G|----------------------------------------------------------------|
D|----------------------------------------------------------------|
A|----------------------------------------------------------------|
E|8~--------------6~--------------4~--------------4~------6~------|

G|----------------------------------------------------------------|
D|----------------------------------------------------------------|
A|----------------------------------------------------------------|
E|8~--------------6~--------------4~--------------4~------6~------|

Refrão:
G|----------------------------------------------------------------|
D|----------------------------------------------------------------|
A|----------------------------------------------------------------|
E|8-8-8-8-8-8-8-8-6-6-6-6-6-6-6-6-4-4-4-4-4-4-4-4-4-4-4-4-6-6-6-6-|

G|----------------------------------------------------------------|
D|----------------------------------------------------------------|
A|----------------------------------------------------------------|
E|8-8-8-8-8-8-8-8-6-6-6-6-6-6-6-6-4-4-4-4-4-4-4-4-4-4-4-4-6-6-6-6-|

G|----------------------------------------------------------------|
D|----------------------------------------------------------------|
A|----------------------------------------------------------------|
E|8-8-8-8-8-8-8-8-6-6-6-6-6-6-6-6-4-4-4-4-4-4-4-4-4-4-4-4-6-6-6-6-|

G|------------------------------------------------------------------|
D|------------------------------------------------------------------|
A|------------------------------------------------------------------|
E|8-8-8-8-8-8-8-8-6-6-6-6-6-6-6-6-4-4-4-4-4-4-4-4-4-4-4-4-6-6-6-6-8~|
00:00 / 00:00
Otros videos de esta canción
Repetir
Otros videos de esta canción
Composición de Adele Adkins / Paul Epworth
Colaboración y revisión:
  • Matheus Maus
734 vistas

0 comentarios

Ver todos los comentarios

¿Lograste tocar?

13 Tocaron 1 Aún no

¡Graba un video tocando Rolling In The Deep y envíanoslo!

00:00 / 00:00
OK