Cifra Club

La Belle De Jour

Alceu Valença

Cifrado: Principal (guitarra y guitarra eléctrica)
Selo Cifra Club: esta cifra foi revisada para atender aos critérios oficiais da nossa Equipe de Qualidade.
tono: C
[Intro]

[Dedilhado - Intro e Primeira Parte]

Parte 1 de 6
   C
E|-------0----------------0---------------------------|
B|---1-1-----1---1----1-1-----1---0-------------------|
G|-----0----------------0-----------------------------|
D|-------------2----------------0---------------------|
A|-3-------3--------3-------3-------------------------|
E|----------------------------------------------------|

Parte 2 de 6
   Em
E|-------3----------------3---------------------------|
B|---0-0-----0---0----0-0-----0---0-------------------|
G|-----0----------------0-----------------------------|
D|-2-------2---0----2-------2---0---------------------|
A|----------------------------------------------------|
E|----------------------------------------------------|

Parte 3 de 6
   Am
E|-------0----------------0---------------------------|
B|---1-1-----1---1----1-1-----1---0-------------------|
G|-----2----------------2-----------------------------|
D|-------------2----2-------2---0---------------------|
A|-0-------3------------------------------------------|
E|----------------------------------------------------|

Parte 4 de 6
   Em
E|-------0----------------0---------------------------|
B|---0-0-----0---0----0-0-----0---0-------------------|
G|-----0----------------0-----------------------------|
D|-------------2----2-------2---0---------------------|
A|----------------------------------------------------|
E|-0-------3------------------------------------------|

Parte 5 de 6 
   F
E|-------1----------------1---------------------------|
B|---1-1-----1---1----1-1-----1---1-------------------|
G|-----2----------------2-----------------------------|
D|---------3---3------------3---3---------------------|
A|----------------------------------------------------|
E|-1----------------1---------------------------------|

Parte 6 de 6
   G
E|-------3-----------3--------------------------------|
B|---3-3-----3---3---3--------------------------------|
G|-----4-------------4--------------------------------|
D|---------5---5-----5--------------------------------|
A|-------------------5--------------------------------|
E|-3-----------------3--------------------------------|

C  Em  C    Em   
       Ah, hei.. 

( Am  Em  Am  Em )

F   G              C   Em  C  Em
Ah,   La Belle de Jour

C    Em   C    Em
Ah, hei.. Ah, hei


[Primeira Parte]

    C
Eu lembro da moça bonita
             Em
Da praia de Boa Viagem
     C
E a moça no meio da tarde
                Em
De um domingo azul
  Am
Azul era Belle de Jour
               Em
Era a bela da tarde
     F
Seus olhos azuis como a tarde
    G
Na tarde de um domingo azul
             C   Em  C  Em
La Belle de Jour

    C
Eu lembro da moça bonita
             Em
Da praia de Boa Viagem
     C
E a moça no meio da tarde
                Em
De um domingo azul
  Am
Azul era Belle de Jour
               Em
Era a bela da tarde
     F
Seus olhos azuis como a tarde
    G
Na tarde de um domingo azul
             C
La Belle de Jour

[Segunda Parte]

Parte 1 de 6
   Am
E|-------0----------------0---------------------------|
B|---1-1-----1---1----1-1-----1---1-------------------|
G|-----2----------------2-----------------------------|
D|-------------2----------------2---------------------|
A|-0-------3--------0-------3-------------------------|
E|----------------------------------------------------|

Parte 2 de 6
   Em
E|-------0----------------0---------------------------|
B|---0-0-----0---0----0-0-----0---0-------------------|
G|-----0----------------0-----------------------------|
D|----------------------------------------------------|
A|-------------2----------------2---------------------|
E|-0-------3--------0-------3-------------------------|


Parte 3 de 6
   F
E|-------1----------------1---------------------------|
B|---1-1-----1---1----1-1-----1---1-------------------|
G|-----2----------------2-----------------------------|
D|---------3---3------------3---3---------------------|
A|----------------------------------------------------|
E|-1----------------1---------------------------------|

Parte 4 de 6
   Em
E|-------0----------------0---------------------------|
B|---0-0-----0---0----0-0-----0---0-------------------|
G|-----0----------------0-----------------------------|
D|---------2---2------------2---2---------------------|
A|----------------------------------------------------|
E|-0----------------0---------------------------------|

Parte 5 de 6
   F
E|-------1----------------1---------------------------|
B|---1-1-----1---1----1-1-----1---1-------------------|
G|-----2----------------2-----------------------------|
D|---------3---3------------3---3---------------------|
A|----------------------------------------------------|
E|-1----------------1---------------------------------|

Parte 6 de 6
   G
E|-------3-----------3--------------------------------|
B|---3-3-----3---3---3--------------------------------|
G|-----4-------------4--------------------------------|
D|---------5---5-----5--------------------------------|
A|-------------------5--------------------------------|
E|-3-----------------3--------------------------------|
          Am
Belle de Jour
          Em
Belle de Jour

    Am
La Belle de Jour

Era a moça mais linda
    Em
De toda a cidade
   Am
E foi justamente pra ela
                                Em
Que eu escrevi o meu primeiro blues
     F
Mas Belle de Jour
            Em
No azul viajava
     F
Seus olhos azuis como a tarde
    G
Na tarde de um domingo azul
             C   Em  C  Em
La Belle de Jour

[Solo] C  Em  C  Em
       Am  Em  Am  Em  F  G

[Tab - Solo]

Parte 1
E|-----5-8-10-7-8-7h8p7-------------------------------|
B|---5------------------8---8-------------------------|
G|------------------------9---9-----------------------|
D|-7--------------------------------------------------|
A|----------------------------------------------------|
E|----------------------------------------------------|

Parte 2
E|-12-------------------------5-----------------------|
B|----10--------------------6-------------------------|
G|-------9-7-------7-5/7--5---------------------------|
D|-----------7-5-7------------------------------------|
A|----------------------------------------------------|
E|----------------------------------------------------|

Parte 3
E|-5---------5-7-8-7-8-10/12--------------------------|
B|---5-----5-----------------8------------------------|
G|-----5----------------------------------------------|
D|-------7--------------------------------------------|
A|----------------------------------------------------|
E|----------------------------------------------------|

Parte 4
E|---8---8---7---7---5---5----------------------------|
B|---------------------------8---8-6-5h6-5------------|
G|-5---5---5---5---5---5---5---5-----------4h5-4------|
D|----------------------------------------------------|
A|----------------------------------------------------|
E|----------------------------------------------------|

Parte 5
E|----------------------------------------------------|
B|-1-1-0-0--------------------------------------------|
G|---------2-2-2-0-0-0--------------------------------|
D|---------------------3-3-3-2-2-0-0------------------|
A|-----------------------------------2h3p2------------|
E|----------------------------------------------------|

             C  Em  C  Em
La Belle de Jour

[Primeira Parte]

    C
Eu lembro da moça bonita
             Em
Da praia de Boa Viagem
     C
E a moça no meio da tarde
                Em
De um domingo azul
  Am
Azul era Belle de Jour
               Em
Era a bela da tarde
     F
Seus olhos azuis como a tarde
    G
Na tarde de um domingo azul
             C   Em  C  Em
La Belle de Jour

    C
Eu lembro da moça bonita
             Em
Da praia de Boa Viagem
     C
E a moça no meio da tarde
                Em
De um domingo azul
  Am
Azul era Belle de Jour
               Em
Era a bela da tarde
     F
Seus olhos azuis como a tarde
    G
Na tarde de um domingo azul
             C
La Belle de Jour

[Segunda Parte]

          Am
Belle de Jour
          Em
Belle de Jour

    Am
La Belle de Jour

Era a moça mais linda
    Em
De toda a cidade
   Am
E foi justamente pra ela
                                Em
Que eu escrevi o meu primeiro blues
     F
Mas Belle de Jour
            Em
No azul viajava
     F
Seus olhos azuis como a tarde
    G
Na tarde de um domingo azul
             C   Em  C  Em
La Belle de Jour

[Final]

C    Em   C    Em
Ah, hei.. Ah, hei
C    Em   C    Em
Ah, hei.. Ah, hei
Otros videos de esta canción
    39.423 exhibiciones
    • Simplificar cifrado
      • ½ Tono
      • A
      • Bb
      • B
      • C
      • Db
      • D
      • Eb
      • E
      • F
      • F#
      • G
      • Ab
    • Agregar a la lista

    Afinação da cifra

    Afinador online

      Capítulos
      • Tocando a Música
      • Dicas Iniciais / Equipamentos
      • Acordes da Introdução e Primeira Parte
      • Tocando a Introdução
      • Introdução e Primeira Parte - Parte 1 de 3
      • Introdução e Primeira Parte - Parte 2 de 3
      • Introdução e Primeira Parte - Parte 3 de 3
      • Tocando Primeira Parte
      • Tocando Segunda Parte
      • Segunda Parte - Parte 1 de 2
      • Segunda Parte - Parte 2 de 2
      • Tocando o Solo
      • Tocando o Solo mais lento
      • Solo - Parte 1 de 5
      • Solo - Parte 2 de 5
      • Solo - Parte 3 de 5
      • Solo - Parte 4 de 5
      • Solo - Parte 5 de 5
      • Encerramento
      • Ficha Técnica / Erros de Gravação
      Ops (: Contenido disponible solo en portugués.
      OK