Cifra Club

Aprenda

Ocean (part. IRO, Zeeba)

Alok

Tablatura: Principal (guitarra)
tono: C
[Intro]  Am  Em  G  Dm
         Am  Em  G  Dm

   Am       Em       G        Dm
E|----------------------------------------|
B|-------1--------0--------0--------6p5---|
G|-----2--------0--------0--------7-----7-| (2x)
D|---2--------2--------0--------7---------|
A|-0--------------------------5-----------|
E|----------0--------3--------------------|

Am         Em     G          Dm
  I saw an angel looking at me
Am               Em
  Her eyes won't open no more
 G                Dm
Hurt, they can't see
Am             Em
  And then I cried all night
    G            Dm
And I couldn't sleep
Am         Em            G         Dm
  All she wanted was to go to the sea

F              C
 Don't worry, ma'
                  G               Dm
'Cause I'm not afraid, I'm not afraid
F              C
 Don't worry, ma'
                  G              Dm
'Cause I'm on my way, I'm on my way
       F     G  Dm
To the ocean

( F  G  Dm )

       Am    Em  G  Dm
To the ocean

( Am  Em  G  Dm )

[Solo]

E|-----------------------------------|
B|---8-5~------5---------5-----------|
G|-5-------5-7---7---5-7---7-5-------|
D|-----------------------------7-----|
A|-----------------------------------|
E|-----------------------------------|

Am         Em      G         Dm
  I saw an angel, now, I believe
Am                 Em
  Her tears don't fall down no more
      G             Dm
It's mine that you see

F              C
 Don't worry, ma'
                  G               Dm
'Cause I'm not afraid, I'm not afraid
F              C
 Don't worry, ma'
                  G              Dm
'Cause I'm on my way, I'm on my way
       F     G  Dm
To the ocean

( F  G  Dm )

       Am   Em  G  Dm
To the ocean

[Solo]

E|-----------------------------------|
B|---8-5~------5---------5-----------|
G|-5-------5-7---7---5-7---7-5-------|
D|-----------------------------7-----|
A|-----------------------------------|
E|-----------------------------------|

Am       Em
  To the ocean
       G
To the ocean
       Dm
To the ocean

( Am  Em  G  Dm )
( Am  Em  G  Dm )
( Am  Em  G  Dm )
( F  C  G  Dm )
( F  C  G  Dm )

F           C            G           Dm
  And now I understand, now she is free
F            G
  I hope to see her someday
              Dm
Smile in the sea

F              C
 Don't worry, ma'
                  G               Dm
'Cause I'm not afraid, I'm not afraid
F              C
 Don't worry, ma'
                  G              Dm
'Cause I'm on my way, I'm on my way
       F     G  Dm
To the ocean

( F  G  Dm )

       Am   Em  G  Dm
To the ocean

( Am  Em  G  Dm )

[Solo]

E|-----------------------------------|
B|---8-5~------5---------5-----------|
G|-5-------5-7---7---5-7---7-5-------|
D|-----------------------------7-----|
A|-----------------------------------|
E|-----------------------------------|

Am
  Wish I told you I loved you more
Em
  Maybe I was lost before
G
 Showed affection to only gold
Dm
  While the sunset made me cold

Am
  Swear I won't complain no more
Em
  Doesn't matter if we're rich or poor
G
  Found out that we don't live to die
Dm
  Even though there is no reason why

Am
  And know I heard you cry
Em
  I'll leave, but you'll be fine
G
 I don't think you'll be lonely now
Dm
  Forgive me if I let you down

Am
  I won't complain no more
Em
  Doesn't matter if we're rich or poor
G
 I found out that we don't live to die
Dm
 I know there is a reason why

( Am  Em  G  Dm )
( Am  Em  G  Dm )

[Solo]

E|-----------------------------------|
B|---8-5~------5---------5-----------|
G|-5-------5-7---7---5-7---7-5-------|
D|-----------------------------7-----|
A|-----------------------------------|
E|-----------------------------------|

Am             Em
 Don't worry, mama
                  G               Dm
'Cause I'm not afraid, I'm not afraid
Am             Em
 Don't worry, mama
           G              Dm
I'm on my way, I'm on my way
       Am   Em  G  Dm
To the ocean

( Am  Em  G  Dm )

[Solo]

E|-----------------------------------|
B|---8-5~------5---------5-----------|
G|-5-------5-7---7---5-7---7-5-------|
D|-----------------------------7-----|
A|-----------------------------------|
E|-----------------------------------|

       Am
To the ocean
Composição de Alok / Marcos Zeeba
286 reproducciones
    • ½ Tono
    • A
    • Bb
    • B
    • C
    • Db
    • D
    • Eb
    • E
    • F
    • F#
    • G
    • Ab
  • Adicionar à lista

    0 comentarios

    Ver todos os comentários

    ¿Conseguiste tocar?

    34 Tocaram 7 Ainda não

    Grave um vídeo tocando Ocean (part. IRO, Zeeba) e nos envie!

    00:00 / 00:00
    outros vídeos desta música
    repetir qualidade Automático
    Outros vídeos desta música
    00:00 / 00:00
    Automático
    OK