Cifra Club

I Will

Ao Haru Ride

Cifrado: Principal (guitarra y guitarra eléctrica)
tono: G
E|--5--5-x-x-5-5-5-x-x-----------7-7-x-x-7-7-7-x-x------9-7--|
A|-----7-x-x-----7-x-x------9-7h9--9-x-x-----9-x-x-7h9-7-----|
D|-----7-x-x-----7-x-x-7/9-7-------9-x-x-----9-x-x-----------|
G|-----6-x-x-----6-x-x-------------8-x-x-----8-x-x-----------|  
B|-----5-x-x-----5-x-x-------------7-x-x-----7-x-x-----------|  
E|-----5-x-x-----5-x-x-------------7-x-x-----7-x-x-----------|  

E|--5-5-5-5-5-5-5-5-7-7-7-7-7-7-7-7-----------------5-5-5-5-5-5-5-5|
A|--7-7-7-7-7-7-7-7-9-9-9-9-9-9-9-9-5-5-5-5-5-5-5-5-7-7-7-7-7-7-7-7|
D|--7-7-7-7-7-7-7-7-9-9-9-9-9-9-9-9-7-7-7-7-7-7-7-7-7-7-7-7-7-7-7-7|
G|--6-6-6-6-6-6-6-6-8-8-8-8-8-8-8-8-7-7-7-7-7-7-7-7-6-6-6-6-6-6-6-6|
B|--5-5-5-5-5-5-5-5-7-7-7-7-7-7-7-7-6-6-6-6-6-6-6-6-5-5-5-5-5-5-5-5|
E|--5-5-5-5-5-5-5-5-7-7-7-7-7-7-7-7-5-5-5-5-5-5-5-5-5-5-5-5-5-5-5-5|

E|--5-5-5-5-5-5-5-5-7-7-7-7-7-7-7-7---------------------5|
A|--7-7-7-7-7-7-7-7-9-9-9-9-9-9-9-9-5-5-5-5-5-5-5-5-5-7-7|
D|--7-7-7-7-7-7-7-7-9-9-9-9-9-9-9-9-7-7-7-7-7-7-7-7-7-9-7|
G|--6-6-6-6-6-6-6-6-8-8-8-8-8-8-8-8-7-7-7-7-7-7-7-7-7-9-6|
B|--5-5-5-5-5-5-5-5-7-7-7-7-7-7-7-7-6-6-6-6-6-6-6-6-6-8-5|
E|--5-5-5-5-5-5-5-5-7-7-7-7-7-7-7-7-5-5-5-5-5-5-5-5-5-7-5|

E|--3-3-3-3-3-3-3-3-2-2-2-2-2-2-2-2-1-1-1-1-1-1-1-1|
A|--5-5-5-5-5-5-5-5-4-4-4-4-4-4-4-4-3-3-3-3-3-3-3-3|
D|--5-5-5-5-5-5-5-5-4-4-4-4-4-4-4-4-3-3-3-3-3-3-3-3|
G|--4-4-4-4-4-4-4-4-3-3-3-3-3-3-3-3-2-2-2-2-2-2-2-2|
B|--3-3-3-3-3-3-3-3-2-2-2-2-2-2-2-2-1-1-1-1-1-1-1-1|
E|--3-3-3-3-3-3-3-3-2-2-2-2-2-2-2-2-1-1-1-1-1-1-1-1|

Composición de Chelsy
Colaboración y revisión:
  • adriel nobre
4.341 vistas
    • ½ Tono
    • A
    • Bb
    • B
    • C
    • Db
    • D
    • Eb
    • E
    • F
    • F#
    • G
    • Ab
  • Agregar a la lista

    0 comentarios

    Ver todos los comentarios

    ¿Lograste tocar?

    0 Tocaron 2 Aún no

    ¡Graba un video tocando I Will y envíanoslo!

    00:00 / 00:00
    Outros vídeos desta música
    Repetir Calidad Automático
    Outros vídeos desta música
    00:00 / 00:00
    Automático
    OK