Cifra Club

Dangerous Animals

Arctic Monkeys

Tablatura: Principal (guitarra)
Tom: Fm
Introdução:

Alex
E|-------------------------------|
B|-------------------------------|
G|-------------------------------|   
D|-------------------------------|
A|-------6-------4-5-------------|
E|3----------6-----------4-------|

Jamie
E|-------------------------------|
B|-------------------------------|
G|-------------------------------|
D|-------------------------------|
A|-------------------------------|
E|-----3-------------------------|

Verso 1:

Alex manten o riff da introduçao
Só faz uma variaçao por volta do 0:33
E|-------------------------------|
B|-------------------------------|
G|-------------------------------|   
D|-------------------------------|
A|-------6-------4-5----4-5------|
E|3----------6-------4-------4---|

Esse é o ultimo Riff antes de irmos para o Refrão:

Alex
E|-------------------------------|
B|-------------------------------|
G|-------------------------------|   
D|-------------------------------|
A|-------6-------4-5-----6-------|
E|3----------6-------------------|

Jamie
E|-------------------------------|
B|-----------------------4-------|
G|-------------------------------|   
D|-------------------------------|
A|-------------------------------|
E|-------------------------------|

Pre-Refrão:

Alex
E|----------------------------------------------------------------|
B|----------------------------------------------------------------|
G|----------------------------------------------------------------|
D|----------------------------------------------------------------|
A|3--------------6----------------1-----------------------3-------|
E|----------------------------------------------------------------|

Jamie
E|----------------------------------------------------------------|
B|1---------------------------------\11---------------------------|
G|----------------------------------------------------------------|
D|----------------------------------------------------------------|
A|----------------------------------------------------------------|
E|----------------------------------------------------------------|

Refrão:

Alex
E|----------------------------------------------------------------|
B|----------------------------------------------------------------|
G|----------------------------------------------------------------|
D|----------------------------------------------------------------|
A|1-------1---3---1-------1---3-----------------------------------|
E|----3---------------1-----------3---3---1---3---3---3---3---3---|

E|----------------------------------------------------------------|
B|----------------------------------------------------------------|
G|----------------------------------------------------------------|
D|----------------------------------------------------------------|
A|1-------1---3---1-------1---3-----------------------------------|
E|----3---------------1-----------3---3---1---3---3---3---3---3---|

E|----------------------------------------------------------------|
B|----------------------------------------------------------------|
G|----------------------------------------------------------------|
D|----------------------------------------------------------------|
A|1-------1---3---1-------1---3-----------------------------------|
E|----3---------------1-----------3---3---1---3---3---3---3---3---|

E|----------------------------------------------------------------|
B|----------------------------------------------------------------|
G|----------------------------------------------------------------|
D|----------------------------------------------------------------|
A|1-------1---3---1-------1---3-------------------5-------3-------|
E|----3---------------1-----------3---3---1---3-------------------|

Jamie
E|----------------------------------------------------------------|
B|----------------------------------------------------------------|
G|--------3-h-5-----------3-h-5-----------------------------------|
D|----------------------------------------3-h-5-------------------|
A|----------------------------------------------------------------|
E|----------------------------------------------------------------|

Alex no final do refrao  segue com o Riff da Introdução:
E|-------------------------------|
B|-------------------------------|
G|-------------------------------|   
D|-------------------------------|
A|--------5----------------------|
E|3-3-1-3----4-------------------|

Depois do final do Refrão:

Jamie
E|--------|-------------------------------------------------------|
B|--------|-------------------------------------------------------|
G|--------|-------------------------------------------------------|
D|--------|5----------------------------------------------3-------|
A|3-------|---------------------------------------6---------------|
E|--------|-------------------------------------------------------|

E|----------------------------------------------------------------|
B|----------------------------------------------------------------|
G|----------------------------------------------------------------|
D|----------------------------------------------------------------|
A|5---------------------------------------------------------------|
E|----------------------------------------------------------------|

E|----------------------------------------------------------------|
B|----------------------------------------------------------------|
G|----------------------------------------------------------------|
D|5-----------------------------------------------3---------------|
A|------------------------------------------------------------6---|
E|----------------------------------------------------------------|

E|----------------------------------------------------------------|
B|----------------------------------------------------------------|
G|----------------------------------------------------------------|
D|----------------------------------------------------------------|
A|5-----------------------------------------------4--5-----4-5----|
E|------------------------------------------------------4-------4-|

Verso 2:

Alex e Jamie
E|------------------|
B|------------------|
G|------------------|
D|-------------6-5--|
A|-3-6----4h5-------|
E|------6-----------|

Alex manten riff da intro e Jamie segue fazendo esse riff com os dedos
E|3---------------------------------------------------------------|
B|-----------------------4-------3--------------------------------|
G|----------------------------------------------------------------|
D|----------------------------------------------------------------|
A|----------------------------------------------------------------|
E|3----------------------4-------3--------------------------------|

(Refrão 2)

Final do Refrão 2:

Alex e Jamie
E|-------------------------------|
B|-------------------------------|
G|-------------------------------|   
D|-------------------------------| 4x
A|--------5----------------------|
E|3-3-1-3----4-------------------|

Riff Antes do Solo:

Alex
E|----------------------------------------------------------------|
B|----------------------------------------------------------------|
G|----------------------------------------------------------------|
D|----------------------------------------------------------------| 6x
A|----------------------------------------------------------------|
E|6-----------------------6------6--------------------------------|

Aqui o Jamie mistura a intro com o riff do segundo verso 
E|3---------------------------------------------------------------|
B|-----------------------4-------3--------------------------------|
G|----------------------------------------------------------------|
D|----------------------------------------------------------------|
A|----------------------------------------------------------------|
E|3----------------------4-------3--------------------------------|

Alex e Jamie fazem o riff principal da musica
E|----|-------------------------------------------------------------------|
B|----|-------------6---5---/9--8-----6-8-----13b(15)r13-15-11-13---8h9---|
G|----|-------------------------------------------------------------------|
D|6---|5---3-5------------------------------------------------------------|
A|----|---------5---------------------------------------------------------|
E|----|-------------------------------------------------------------------|

E|--------------------------------------------------------------------------|
B|8-------------------------------------------------------------------------|
G|----------6-7---6-7---------------------------5-5b(6)r5---5h6p5-----------|
D|--------------8-----8-5-------6-8---6---x-5-8---------------------8-------|
A|--------------------------------------------------------------------------|
E|--------------------------------------------------------------------------|

Jamie faz a mesma coisa que o Alex porem um oitava abaixo
E|--------------------------------------------------------------------------|
B|--------------------------------------------------------------------------|
G|--------------------------------------------------------------------------|
D|--------------------------------------------------------------------------|
A|----------4-5---4-5-------------------------------------------------------|
E|--------------6-------6---------------------------------------------------|

E|-----------------------|
B|8----------------------|
G|--5---5-6--------------|
D|----8-----6-5----------|
A|-----------------------|
E|-----------------------|

Os dois repetem o riff principal ate o fim da musica
E|-------------------------------|
B|-------------------------------|
G|-------------------------------|   
D|-------------------------------|
A|-------6-------4-5-------------|
E|3----------6-----------4-------|
reproducciones 220
Acordes para:
    Composição: Alex Turner / Arctic Monkeys Colaboración y revision:
    • Washington Roberto

    0 comentarios

    mostrar más comentarios

    ¿Conseguiste tocar?

    1 tocaron 1 aún no

    ¡Graba un vídeo tocando Dangerous Animals y envianoslo!

    00:00 / 00:00
    outros vídeos desta música
    repetir qualidade Automático
    Outros vídeos desta música
    00:00 / 00:00
    Automático
    OK