Cifra Club

Love Is a Laserquest

Arctic Monkeys

Tablatura: Principal (guitarra)
Tom: Em
[Intro] G

         G                           Em
Do you still feel younger than you thought you would by now?
    Am                              D
Or darling have you started feeling old yet?
       G                                          Em                    Am
Don't worry, I'm sure that you're still breaking hearts, with the efficiency
                     D
That only youth can harness

             G                      Em
And do you still think love is a laserquest?
           Am                  D
Or do you take it all more seriously?
              G                   Em
I've tried to ask you this, in some daydreams that i've had
                Am                    D
But you were always busy being make believe

            C                        D
And do you look into the mirror, to remind yourself, you're there?
            G                                C
Or has somebody's goodnight kisses got that covered?
                                  D                 C         G
When I'm not being honest, I pretend that you were just some lover

    G                      Em
Now I can't think of air, without thinking of you
   Am                    D
I doubt that comes as a surprise
    G                              Em
And I can't think of anything to dream about
Am                     D
I can't find anywhere to hide

      C                          D
And when I'm hanging on, by the rings around my eyes
          G                    C
And I convince myself I need another
                                 D                    C         G
For a minute it gets easier to pretend that you were just some lover

( G  Em  Am  D )

          C                     D
When I'm pipe and slippers and rocking chair
          G                   C
Singing dreadful songs about summer
                                     D                  C         Em
Well I've found a better method of pretending you were just some lover?
           C                         D                  C         G
Well I've found a better method of pretending you were just some lover?

E|-7-7-7-6-4-4-4-4-4-4-4-7-6-6-6-6-----------------------------------------|
B|--7-7-7-7-4-4-4-4-5-5-5-5-7-7-7-7----------------------------------------|
G|-------------------------------------------------------------------------|
D|-------------------------------------------------------------------------|
A|-------------------------------------------------------------------------|
E|-------------------------------------------------------------------------|

[Refrão]

E|-4-4-4-7-6-6-6-6--7-7-7-6-4-4-4-4-4-4-4-4--7-6-6-4-4-7-7-7-7-7-7-7-7-----|
B|--5-5-5-5-7-7-7-7--7-7-7-7-5-5-5-5-5-5-5-5--5-7-7-5-5-7-7-7-7-7-7-7-7----|
G|-------------------------------------------------------------------------|
D|-------------------------------------------------------------------------|
A|-------------------------------------------------------------------------|
E|-------------------------------------------------------------------------|

[Solo]

E|-11-11-14-11-16-14-11-11-11-12-12-11-9-9-7-11-9--------------------------|
B|------------------------------------------------9s11-7-------------------|
G|-------------------------------------------------------------------------|
D|-------------------------------------------------------------------------|
A|-------------------------------------------------------------------------|
E|-------------------------------------------------------------------------|

[Último Refrão]

E|--4-4-4-7-6-6-6-6--7-7-7-6-4-4-4-4-4-4-4-4--7-6-6-4-4-4-4-4-4-4-4-4-4----|
B|---5-5-5-5-7-7-7-7--7-7-7-7-5-5-5-5-5-5-5-5--5-7-7-5-5-4-4-4-4-4-4-4-4---|
B|-------------------------------------------------------------------------|
G|-------------------------------------------------------------------------|
D|-------------------------------------------------------------------------|
A|-------------------------------------------------------------------------|
E|-------------------------------------------------------------------------|

E|-4-4-4-7-6-6-4-4-7-------------------------------------------------------|
B|--5-5-5-5-7-7-5-5-7------------------------------------------------------|
G|-------------------------------------------------------------------------|
D|-------------------------------------------------------------------------|
A|-------------------------------------------------------------------------|
E|-------------------------------------------------------------------------|

[Solo] G  Em  Am  C  D

E|--3--2-0--------0-----0-00-0----2-2-2-----2--------------|
B|--0------0--------0---1-11--1---3-3---3---3--------------|
G|--0--------0-00-----0-2-22----2-2-2-----2-2--------------|
D|--0--------2-22-------2-33-------------------------------|
A|--2--------2-22------------------------------------------|
E|--3--------0-00------------------------------------------|
reproducciones 8.889

0 comentarios

mostrar más comentarios

¿Conseguiste tocar?

37 tocaron 3 aún no

¡Graba un vídeo tocando Love Is a Laserquest y envianoslo!

00:00 / 00:00
outros vídeos desta música
repetir qualidade Automático
Outros vídeos desta música
00:00 / 00:00
Automático
OK