Cifra Club

One For The Road

Arctic Monkeys

Tablatura: Principal (guitarra)
Tom: E
Intro

Palm Muted and played TWICE

E|--------------7---8----10----8---7-------|
B|---8----10--8--10---12----10---8------10-|
G|-9---11----------------------------11----|
D|-----------------------------------------|
A|-----------------------------------------|
E|-----------------------------------------|

E|------------------------------------|
B|------------------------------------|
G|------------------------------------|
D|------------------------------------|
A|----3-2-3-2-3-2---------------------|
E|----------------5-3-----------------|

Verse (Chords)

E|------------------------------------|
B|------------------------------------|
G|-------4--5--2----------------------|
D|----2--4--5--2----------------------|
A|----2--2--3--0----------------------|
E|----0-------------------------------|

Verse (Riff)

Played on bass but can be played on the guitar

E|------------------------------------|
B|------------------------------------|
G|------------------------------------|
D|------------------------------------|
A|------------------------------------|
E|---0-3-5-7---8-3-7-5----------------|

1st Chorus (carry on playing the verse)


Play Verse again but there is this played on top of the chords

E|--------------------------------------------|
B|----12--------12--------12--------12--------|
G|--12--12-11-12--12-11-12--12-11-12--12-11---|
D|--------------------------------------------|
A|--------------------------------------------|
E|--------------------------------------------|


2nd Chorus

E|-----------------------------------------------------------------|
B|-----------------------------------------------------------------|
G|---5---------------5---------------5---------------5-------4-----|
D|---5-------2-------5-------2-------5-------2-------5-------4-----|
A|---3-------2-------3-------2-------3-------2-------3-------2-----|
E|-----------0---------------0---------------0---------------------|

After chorus repeat the in intro Twice

E|------------7---8---10---8---7------|
B|---8---10------------------------10-|
G|-9---9----9---9---9----9---9---9----|
D|------------------------------------|
A|------------------------------------|
E|------------------------------------|

Then play this twice

E|------------------------------------|
B|------------------------------------|
G|--9-11-12/19-17-16-14-12------------|
D|------------------------------------|
A|------------------------------------|
E|------------------------------------|

Solo

E|-------------------------------------------|
B|-------------------------------------------|
G|--14^-----------11-11-11----------------12-| Repeat Twice
D|------14--12h14---------12/14---9-12-14----|
A|-------------------------------------------|
E|-------------------------------------------|

E|-------------------------------------------------------------------------|
B|--14^-14---19-16---19^-19-16-14---9-12-14-12-14-12-9-12-14-12-9-12-14-16-|
G|-------------------------------------------------------------------------|
D|-------------------------------------------------------------------------|
A|-------------------------------------------------------------------------|
E|-------------------------------------------------------------------------|

E|------------------------------------|
B|----------------19^-17--------------|
G|--19-19^-19-19^--------14-12-9------|
D|------------------------------------|
A|------------------------------------|
E|------------------------------------|

Final Chorus

E|-----------------------------------------------------------------|
B|-----------------------------------------------------------------|
G|---5---------------5---------------5---------------5-------4-----|
D|---5-------2-------5-------2-------5-------2-------5-------4-----|
A|---3-------2-------3-------2-------3-------2-------3-------2-----|
E|-----------0---------------0---------------0---------------------|

this is played on top of the chords in the chorus

E|------------------------------------|
B|------------------------------------|
G|--9-11-12/19-17-16-14-12------------|
D|------------------------------------|
A|------------------------------------|
E|------------------------------------|
reproducciones 2.615
Acordes para:
    Composição: Alex Turner Colaboración y revision:
    • Gabriel Dias
    • Matheus Carneiro

    0 comentarios

    mostrar más comentarios

    ¿Conseguiste tocar?

    5 tocaron 4 aún no

    ¡Graba un vídeo tocando One For The Road y envianoslo!

    00:00 / 00:00
    outros vídeos desta música
    repetir qualidade Automático
    Outros vídeos desta música
    00:00 / 00:00
    Automático
    OK