Cifra Club

One Point Perspective

Arctic Monkeys

Tablatura: Principal (guitarra)
Tom: Cm
Eb7M
Dancing in my underpants
Eb(#5)
I'm gonna run for government
Eb6                                                 Eb7
I'm gonna form a covers band and all
Ab7M
And back there by the baby grand
Abm6
Didn't Mr. Winter Wonderland
Gm7                          G7                         Cm7
Say come here kid, we really need to talk?
Ab7M                                                  Abm6  Gm7  Gm7
Bear with me, man, I lost my train of thought

Eb7M
I fantasise and call it quits
Eb(#5)
I swim with the economists
Eb6                                             Eb7
And I get to the bottom of it for good
Ab7M
By the time when reality hits
Abm6
The chimes of freedom fall to bits
Gm7                 G7             Cm7
The shining city on the fritz
Ab7M                                                         Abm6  Gm7  Gm7
They come out of the cracks thirsty for blood

Cm7                       Gm7                     Fm7
         Just as the apocalypse finally gets prioritised
Fm7               Gm7                 Cm7
And you cry some of the hottest tears
                         Gm7                      Fm7
You never cried multiplied by five
                                             E7M
I suppose the singer must die

[Solo] Eb7M  Eb(#5)  Eb6  Eb7
          Ab7M  Abm6  Gm7  Gm7

E|---------------------------------------------------------------------------------------------------|
B|---------------------------------------------------------------------------------------------------|
G|-/20-17-/19-12~------------------------------------------------------------------------------|
D|-----------------------13h15p13-13----13-13----13/15\-----/15-13----13-------------|
A|-----------------------------------15-------15-------------------15----15--13-15-13\9b--|
E|---------------------------------------------------------------------------------------------------|

E|---------------------------------------------------------------------------------|
B|---------------------------------------------------------------------------------|
G|---------------------------------------------------------------------------------|
D|-13-15-15-13-15/-----------------13--15-13-15b-15-13h15-----\---|
A|------------------13-15-15-13-15-------------------------------------------|
E|----------------------------------------------------------------------------------|

Eb7M
Singsongs around the money tree
Eb(#5)                                       Eb6                                      Eb7
This stunning documentary that no one else unfortunately saw
  Ab7M                                  Abm6
Such beautiful photography, it's worth it for the opening scene
Gm7                                                       Cm7
I've been driving 'round listening to the score
  Ab7M                                  Abm6
Or maybe, I just imagined it all
Gm7                                                Cm7
I've played to quiet rooms like this before
Ab7M                                                Abm6
Bear with me, man, I lost my train of thought

( Gm7  G7  Cm7  Ab7M  Abm6 )
( Gm7  G7  Cm7  Ab7M  Abm6 )
reproducciones 294
Acordes para:
    Composição: Arctic Monkeys Colaboración y revision:
    • Joao Vicente
    • Tiago Oliveira

    0 comentarios

    mostrar más comentarios

    ¿Conseguiste tocar?

    2 tocaron 0 aún no

    ¡Graba un vídeo tocando One Point Perspective y envianoslo!

    00:00 / 00:00
    outros vídeos desta música
    repetir qualidade Automático
    Outros vídeos desta música
    00:00 / 00:00
    Automático
    OK