Cifra Club

Pretty Visitors

Arctic Monkeys

Tablatura: Principal (guitarra)
Tom: A
Intro:

(Teclado)
E|-----------------------------------------------------|
B|-----------------------------------------------------|
G|-6-4-6-4-6-4-6--6-4-2-4-2--1-------1-2-1-2-1---------|
D|------------------------------4--4-----------4-4-2-4-|
A|-----------------------------------------------------|
E|-----------------------------------------------------|

Verso 1:
E|--------------------------------------------------|
B|--------------------------------------------------|
G|--------------------------------------------------|   (2x)
D|--------------------------------------------------|
A|--9--5--9------9--5--9-------------------9--5--9--|
E|-----------------------------7--2--7--5-----------|

Pré-Refrão:
E|----------------------------------------|
B|----------------------------------------|
G|----------------------------------------|
D|----------------------------------------|
A|----------------------------------------|
E|-2~~------2~~-------2~~-------2~~-------|

Refrão:
E|-----------------------------------|
B|-----------------------------------|
G|-----------------------------------|   (2x)
D|-----------------------------------| 
A|-----------------4-5---5---5-------|
E|-2---2---2---2-5---------------4---|

Verso 2:
E|--------------------------------------------------|
B|--------------------------------------------------|
G|--------------------------------------------------|
D|--------------------------------------------------|
A|--9--5--4------9--5--9----------------------5--9--|
E|-----------------------------7--2--7--5--2--------|

E|--------------------------------------------------|
B|--------------------------------------------------|
G|--------------------------------------------------|
D|--------------------------------------------------|
A|--9--5--9------9--5--9----------------------------|
E|-----------------------------7--2--7--5--2--------|

(Refrão)

Pós-Refrão:
E|----------------------------------------|
B|----------------------------------------|
G|----------------------------------------|
D|----------------------------------------|
A|----------------------------------------|
E|-2~~------2~~-------2~~-------2~~-------|

Solo:
E|----------------------------------|
B|----------------------------------|
G|----------------------------------|   (4x)
D|----------------------------------|
A|------5---4--5-9---8-5---8---9-4--|
E|--2-------------------------------|

Ponte:
E|-----------------------------------------|
B|-----------------------------------------|
G|-----------------------------------------|
D|--11-11-11-11-11-11-7--11-11-11-11-11-11-|
A|--11-11-11-11-11-11-7--11-11-11-11-11-11-|
E|--9--9--9--9--9--9--5--9--9--9--9--9--9--|

E|---------------|
B|---------------|
G|---------------|
D|---------------|
A|--5--5--5------|
E|-----------4---|

(Refrão 2x)

Guitarra 2:                                 
E|-----9--------9--------9--------10~~--|        e|-14~-|
B|--7----7---7----7---7----7---7--------|        B|-14~-|
G|--------------------------------------|  (4x)  G|-----|
D|--------------------------------------|        D|-----|
A|--------------------------------------|        A|-----|
E|--------------------------------------|        E|-----|
reproducciones 987
Acordes para:
    Composição: Alex Turner / Arctic Monkeys Colaboración y revision:
    • Lucas Bohi

    0 comentarios

    mostrar más comentarios

    ¿Conseguiste tocar?

    2 tocaron 0 aún no

    ¡Graba un vídeo tocando Pretty Visitors y envianoslo!

    00:00 / 00:00
    outros vídeos desta música
    repetir qualidade Automático
    Outros vídeos desta música
    00:00 / 00:00
    Automático
    OK