Cifra Club

Pretty Visitors

Arctic Monkeys

Cifrado: Principal (guitarra y guitarra eléctrica)
Quer fazer aulas de música com a gente? Responda essas perguntas
e nos ajude nesse projeto! →
tono: A
[Intro Órgão]

E|----------------------------------------------------------------|
B|----------------------------------------------------------------|
G|-6--4--6--4--6--4--6-4-6-7--4---4---------------------6-7-7-9-7-|
D|-------------------------------7---7--6-4-4-4-6-7-6-7-----------|
A|----------------------------------------------------------------|
E|----------------------------------------------------------------|

[Teclado]

E|-----------------------------------------------------|
B|-----------------------------------------------------|
G|-6-4-6-4-6-4-6--6-4-2-4-2--1-------1-2-1-2-1---------|
D|------------------------------4--4-----------4-4-2-4-|
A|-----------------------------------------------------|
E|-----------------------------------------------------|

[Primeira Parte]

E|--------------------------------------------------|
B|--------------------------------------------------|
G|--------------------------------------------------| (2x)
D|--------------------------------------------------|
A|--9--5--9------9--5--9-------------------9--5--9--|
E|-----------------------------7--2--7--5-----------|

[Pré-Refrão]

E|----------------------------------------|
B|----------------------------------------|
G|----------------------------------------|
D|----------------------------------------|
A|----------------------------------------|
E|-2~~------2~~-------2~~-------2~~-------|

[Refrão]

E|-----------------------------------|
B|-----------------------------------|
G|-----------------------------------| (2x)
D|-----------------------------------|
A|-----------------4-5---5---5-------|
E|-2---2---2---2-5---------------4---|

[Segunda Parte]

E|--------------------------------------------------|
B|--------------------------------------------------|
G|--------------------------------------------------|
D|--------------------------------------------------|
A|--9--5--4------9--5--9----------------------5--9--|
E|-----------------------------7--2--7--5--2--------|

E|--------------------------------------------------|
B|--------------------------------------------------|
G|--------------------------------------------------|
D|--------------------------------------------------|
A|--9--5--9------9--5--9----------------------------|
E|-----------------------------7--2--7--5--2--------|

[Refrão]

E|-----------------------------------|
B|-----------------------------------|
G|-----------------------------------| (2x)
D|-----------------------------------|
A|-----------------4-5---5---5-------|
E|-2---2---2---2-5---------------4---|

[Pós-Refrão]

E|----------------------------------------|
B|----------------------------------------|
G|----------------------------------------|
D|----------------------------------------|
A|----------------------------------------|
E|-2~~------2~~-------2~~-------2~~-------|

[Solo]

E|----------------------------------|
B|----------------------------------|
G|----------------------------------| (4x)
D|----------------------------------|
A|------5---4--5-9---8-5---8---9-4--|
E|--2-------------------------------|

[Ponte]

E|-----------------------------------------|
B|-----------------------------------------|
G|-----------------------------------------|
D|--11-11-11-11-11-11-7--11-11-11-11-11-11-|
A|--11-11-11-11-11-11-7--11-11-11-11-11-11-|
E|--9--9--9--9--9--9--5--9--9--9--9--9--9--|

E|---------------|
B|---------------|
G|---------------|
D|---------------|
A|--5--5--5------|
E|-----------4---|

[Refrão]

[Guitarra 2]                                 

E|-----9--------9--------9--------10~~--| e|-14~-|
B|--7----7---7----7---7----7---7--------| B|-14~-|
G|--------------------------------------| G|-----|
D|--------------------------------------| D|-----|
A|--------------------------------------| A|-----|
E|--------------------------------------| E|-----|
Composición de Alex Turner / Arctic Monkeys
Colaboración y revisión:
  • João Bilibio
  • Lucas Bohi
1.074 vistas
    • ½ Tono
    • A
    • Bb
    • B
    • C
    • Db
    • D
    • Eb
    • E
    • F
    • F#
    • G
    • Ab
  • Agregar a la lista

    0 comentarios

    Ver todos los comentarios

    ¿Lograste tocar?

    2 Tocaron 0 Aún no

    ¡Graba un video tocando Pretty Visitors y envíanoslo!

    00:00 / 00:00
    Outros vídeos desta música
    Repetir Calidad Automático
    Outros vídeos desta música
    00:00 / 00:00
    Automático
    OK