Cifra Club

Mathemagics

Bakemonogatari

Cifrado: Principal (guitarra y guitarra eléctrica)
tono: Eb
[Base]

E|---------------------|
B|---------------------|
G|---------------------|
D|----------3--3-------|
A|-3-3--6-5------6-5-6-|
E|---------------------|

[Violino]

E|---------------------------------------6----------------|
B|-----------------------------------------9-8---6---9--8-|
G|-----------3-----------------5-7-8--5--3----------------|
D|-------------6-5---3---6--5--------------6-5---3---6--5-|
A|-3-5-6--3--------------------3-5-6--3-------------------|
E|--------------------------------------------------------|

 Cm          Ab
Zutto wakatteta
  Fm          G
Kotoba wa uso bakari
  Cm        Ab 
Kantan ni wasureru
  Fm      Cm     G    Ab
Futashika de aimai na mono

    G          Cm      Bb
Shinjitsu mo nejifuseteku
      Ab        G
Mahou ni nigekonde

  C#m  A    Ab  
Taiyou mo kieta natsu
  C#m  A       Ab     
Hitori kiri de watashi ga
  C#m  A       Ab 
Michibiki dashita kotae

     A
Sore wa
    
Kimi datta (kimi datta)
       
Mitsukatta no (mitsukatta no)
                          F#m         C#m
Dare yori mo tadashii hazu no kotae wo
00:00 / 00:00
Otros videos de esta canción
Repetir
Otros videos de esta canción
Composición de Marina Inoue
Colaboración y revisión:
  • Tiago Rivero
12 vistas
    • ½ Tono
    • A
    • Bb
    • B
    • C
    • Db
    • D
    • Eb
    • E
    • F
    • F#
    • G
    • Ab
  • Agregar a la lista

    0 comentarios

    Ver todos los comentarios
    00:00 / 00:00
    OK