Cifra Club

Platinum Disco

Bakemonogatari

Cifrado: Principal (guitarra y guitarra eléctrica)
tono: E
[Intro]

E|-----------------------------------------------|
B|-----------------------------------------------|
G|------6----------------------------------------|
D|--6-9----9---6-4-6-4-2-2-------4-6-4-----------|
A|-------------4---4---4-----4-7-------7-4-7-9---|
E|--0-0-0--0-----------------5---5---5-5-----7---|

E|-----------------------------------------------|
B|-----------------------------------------------|
G|------6----------------------------------------|
D|--6-9----9---6-4-6-4-2-2-------4-6-4-9-6-------|
A|-------------4---4---4-----4-7-----------9-7-7-|
E|--0-0-0--0-----------------5---5---5-7---7-0-0-|

[Primeira Parte]

    E   
Miwataseba ichimen
   C#m        
Hakkin no sekai ni
A         B
Ippo dake fumidashite
     E         
Itsu made mo tomaranai
     C#m                 
Kono mune no tokimeki de
A     B       E
Issho ni odorou

[Ponte]

A                                     E   
Kimi no senaka de ano hi mitsuketa tsuki ga
        A    
Kyou mo miraa booru mitai ni yozora de
  B                     
Kirari chirari kagayaiteru

E|-----------------|
B|-----------------|
G|--6--8--------6--|
D|--------6--8-----|
A|--4--6--------4--|
E|--------4--6-----|

[Refrão]

   B        C#
Kawatteku mono
    Bbm     D#m  
Kawaranai mono
 B      C#      F#      
Akippoi watashi ga
    B        C#
Hajimete shitta
     Bbm  D#m
Kono eien o
  B        C#  F#
Kimi ni chikau yo

  B
Purachina ureshii no ni
  Bbm       D#m        
Purachina setsunaku natte
  B         C#
Purachina namida ga dechau no wa
B         C#
Nande? Doushite?
  C#      F#
Disukoteikku
00:00 / 00:00
Otros videos de esta canción
Repetir
Otros videos de esta canción
Composición de Yuka Iguchi
Colaboración y revisión:
  • Tiago Rivero
53 vistas
    • ½ Tono
    • A
    • Bb
    • B
    • C
    • Db
    • D
    • Eb
    • E
    • F
    • F#
    • G
    • Ab
  • Agregar a la lista

    0 comentarios

    Ver todos los comentarios
    00:00 / 00:00
    OK