Cifra Club

Renai Circulation

Bakemonogatari

Cifrado: Principal (guitarra y guitarra eléctrica)
tono: C
[Intro]

Se no
     A         B
Demo sonnan ja dame
    G#m       C#m
Mou sonnan ja hora
F#m           B
Kokoro wa shinka suru yo
E        C#m
Motto motto

( A  B  E  C#m )
( A  B  E  C#m )
( A  B  E  C#m )
( A  B  E )

E|-0--0--2-3-4--0-----0--0--2-3-4--0-|
B|----------------0-2----------------|
G|-----------------------------------|
D|-----------------------------------|
A|-----------------------------------|
E|-----------------------------------|

E|---0--0----0--0---0--5-4-0---4-----|
B|-2--2----2--2--------------2-------|
G|-----------------------------------|
D|-----------------------------------|
A|-----------------------------------|
E|-----------------------------------|

E|-0--0--2-3-4--0-----0--0--2-3-4--0-|
B|----------------0-2----------------|
G|-----------------------------------|
D|-----------------------------------|
A|-----------------------------------|
E|-----------------------------------|

E|---0--0----0--0---0--5-4-0-2-0-----|
B|-2--2----2--2----------------------|
G|-----------------------------------|
D|-----------------------------------|
A|-----------------------------------|
E|-----------------------------------|

[Primeira Parte]

A                B
Kotoba ni sureba kiechau kankei nara
E             C#m
Kotoba o keseba ii yatte
A        B
Omotteta osoreteta
E               C#m
Dakedo are nanka chigau kamo

A                    B
Senri no michi mo ippo kara
E                      C#m
Ishi no you ni katai sonna ishi de
A                      B
Chiri mo tsumoreba yamato nadeshiko
E
Shi nuki de iya shinuki de

A           B        G#m
Fuwa fuwari fuwa fuwaru
C#m       A
Anata ga namae o yobu
B
Sore dake de
E           C#m
Chuu e ukabu

A           B         G#m
Fuwa fuwaru fuwa fuwari
C#m       A
Anata ga waratte iru
B
Sore dake de
E
Egao ni naru

E         C#m
Kami sama arigatou
A           B
Unmei no itazura demo
E       C#m
Meguriaeta koto ga
   A  B     E
Shiawase na no

A              B
Demo sonnan ja dame
G#m            C#m
Mou sonnan ja hora
F#m           B
Kokoro wa shinka suru yo
E        C#m
Motto motto

A             B
Sou sonnan ja yada
G#m           C#m
Nee sonnan ja mada
F#m             B
Watashi no koto mitete ne
E
Zutto Zutto
00:00 / 00:00
Otros videos de esta canción
Repetir
Otros videos de esta canción
Composición de Satoru Kousaki
Colaboración y revisión:
  • Tiago Rivero
1.765 vistas
    • ½ Tono
    • A
    • Bb
    • B
    • C
    • Db
    • D
    • Eb
    • E
    • F
    • F#
    • G
    • Ab
  • Agregar a la lista

    0 comentarios

    Ver todos los comentarios

    ¿Lograste tocar?

    3 Tocaron 1 Aún no

    ¡Graba un video tocando Renai Circulation y envíanoslo!

    00:00 / 00:00
    OK