Cifra Club

Glitter

BENEE

Cifrado: Principal (guitarra y guitarra eléctrica)
tono: G
[Primeira Parte]

                        G
Everyone else has left now
                                C
I bet that this got you stressed out
                         G
Wonderin', what can we do now?
              C
Maybe let it burn out
                      G
Where I can't feel my face
                     C
Mm, minds twisted in weird ways
                           G
Wonderin', what can we do now?
                C
Maybe let it burn out
 
[Pré-Refrão]

           Bm
Glitter's sparklin' on your heart now, darling
           Am
Won't you stay?
          Bm
I'm here wonderin' what to say
                  Am
You're putting me away now
 
[Refrão]

                     G
I know it's getting late now, baby
                  C
Maybe you should stay here with me
                   G
Let's just make it our own party
                        C                       Am
Stick together like glitter, glitter, glitter, glitter
 
( G  C  Am )
 
E|-7-5-------------------7-5----------------|
B|------8-7--5---5------------8-7--5--------|
G|-------------7---4-----------------7------|
D|------------------------------------------|
A|------------------------------------------|
E|------------------------------------------|

E|------------------------------------------|
B|------------------------------------------|
G|------------------------------------------|
D|-9-7-------------------9-7----------------|
A|------10-9--7----7---------10-9--7--------|
E|--------------10---9---------------10-----|
 
[Segunda Parte]

                  G
Race against the sunlight  wanna have a long night
          C
Night mysteries, night mysteries
       G
Under spotlight, don't let me out of your sight
       C
Two energies, two energies
 
[Pré-Refrão]

           Bm
Glitter's sparklin' on your heart now, darling
           Am
Won't you stay? (Ooh)
          Bm
I'm here wonderin' what to say
                  Am
You're putting me away now
 
[Refrão]

                     G
I know it's getting late now, baby
                  C
Maybe you should stay here with me
                    G
Let's just make it our own party
                        C                       Am
Stick together like glitter, glitter, glitter, glitter
                     G
I know it's getting late now, baby (Late now)
                  C
Maybe you should stay here with me
                    G
Let's just make it our own party (Party)
                        C                       Am
Stick together like glitter, glitter, glitter, glitter
 
( G  C  G  C  Am )
 
E|-7-5-------------------7-5----------------|
B|------8-7--5---5------------8-7--5--------|
G|-------------7---4-----------------7------|
D|------------------------------------------|
A|------------------------------------------|
E|------------------------------------------|

E|------------------------------------------|
B|------------------------------------------|
G|------------------------------------------|
D|-9-7-------------------9-7----------------|
A|------10-9--7----7---------10-9--7--------|
E|--------------10---9---------------10-----|

                        G
Everyone else has left now
                                  C
I bet that this got you stressed out
                          G
Wonderin', what can we do now?
              C        C7M
Maybe let it burn out
00:00 / 00:00
Otros videos de esta canción
Repetir
Otros videos de esta canción
Composición de Benee / Djeisan Suskov / Josh Fountain
Colaboración y revisión:
  • Geiciane Sousa
174 vistas
    • ½ Tono
    • A
    • Bb
    • B
    • C
    • Db
    • D
    • Eb
    • E
    • F
    • F#
    • G
    • Ab
  • Agregar a la lista

    0 comentarios

    Ver todos los comentarios

    ¿Lograste tocar?

    2 Tocaron 0 Aún no

    ¡Graba un video tocando Glitter y envíanoslo!

    00:00 / 00:00
    OK