Cifra Club

The Day

Boku no Hero

Cifrado: Principal (guitarra y guitarra eléctrica)
tono: Db
E|-------------------------------------------|
B|-2-2-5-2-5-2---5---2---3-------------------|
G|-------------------------------------------|
D|-------------------------------------------|
A|-------------------------------------------|
E|-------------------------------------------|

Ab4           Gb4
Shizukesa ga shimikomu you de
Ab4           Gb4
Iki o tome ta gozen go ji
Gbm         Gb4              Gbm           Ab
Hijou kaidan de tsume o kamu, asu wa docchi da?

Ab4
(The Day Has Come)
E|----------4-7------------------------------|
B|--2-4-5-7----------------------------------|
G|-------------------------------------------|
D|-------------------------------------------|
A|-------------------------------------------|
E|-------------------------------------------|

[Solo]

E|-------------------------------------------|
B|--4-5~4------------------------------------|
G|--------4----------------------------------|
D|----------4-6-7~6--------------------------|
A|------------------7------------------------|
E|-------------------------------------------|

E|-------------------------------------------|
B|--4-5~4------------------------------------|
G|--------4----------9-----------------------|
D|----------4-6-7~6--------------------------|
A|-------------------------------------------|
E|-------------------------------------------|

Ab4                 Gb4
Keshite akenai yoru mo
Ab4           Gb4
Furitsuzukete yamanai ame mo
Ab4         Gb4               Gbm       Ab
Konoroku demo nai sekai ni wa arunda yo
Ab4                     Gb4
Sukoshi mo hen de wa nai no
Ab4                  Gb4
Madoromi ni ashi o torareteru
Ab4          Gb4   Gbm
Anata wo semete iru wake janainda yo

Ab                Ab4
Hitori kuusou ni asubu
Ab       Gb4
Sokode omoiegaita koto made
Gbm          Ab
Hajiru no kai?

E|--------4----------------------------------|
B|--1-2~4------------------------------------|
G|-------------------------------------------|
D|-------------------------------------------|
A|-------------------------------------------|
E|-------------------------------------------|

Ab4               Gb4
Karamaiu meikyuu meikyuu
Ab4              Gb4
Soredemo yuku to iu no?
Gbm              Gb4
Chiisaki tabibito ga kanaderu
Gbm               Ab
Hajimari no kane no ne
Ab4           Gb4
Yuku ate mo Don't Know Don't Know
Ab4                   Gb4
Hontou wa kowain ja nai no?
Gbm            Gb4        Gbm          Ab
Fumidasu sono ippo ippo ga kaete yukeru sa
Ab4
The Day Has Come

E|----------4-7-5-5--------------------------|
B|--2-4-5-7----------------------------------|
G|-------------------------------------------|
D|-------------------------------------------|
A|-------------------------------------------|
E|-------------------------------------------|

00:00 / 00:00
Otros videos de esta canción
Repetir
Otros videos de esta canción
Composición de Porno Graffiti
Colaboración y revisión:
  • Francisco Chico
2.205 vistas
    • ½ Tono
    • A
    • Bb
    • B
    • C
    • Db
    • D
    • Eb
    • E
    • F
    • F#
    • G
    • Ab
  • Agregar a la lista

    0 comentarios

    Ver todos los comentarios

    ¿Lograste tocar?

    3 Tocaron 8 Aún no

    ¡Graba un video tocando The Day y envíanoslo!

    00:00 / 00:00
    OK