Cifra Club

Aprenda

Sozinho

Caetano Veloso

Tablatura: Simplificada (guitarra)
tono: G
[Intro] F7M  Em7(9)  G/A

   F7M              Em7(9)   G/A
E|-----0-------0--------2---------------------|
B|-----1-------1--------3--------0--------0---|
G|---2---2---2---2----0---0------0--------0---|
D|-----------------------------0---0----0---0-|
A|---------------------------0--------0-------|
E|-1-------1--------0-------------------------|

[Primeira Parte]

   D6(9)   A9/C#   Bm
E|-----0-------0-------2-------2--------------|
B|-----0-------0-------3-------3--------------|
G|---2---2---2---2---4---4---4---4------------|
D|-0------------------------------------------|
A|---------4-------2-------2------------------|
E|--------------------------------------------|

   Em      Em/D    A9/C#   A7
E|-----0-------0-------0-------0--------------|
B|-----0-------0-------0-------2--------------|
G|---0---0---0---0---2---2---0---0------------|
D|---------0----------------------------------|
A|-----------------4-------0------------------|
E|-0------------------------------------------|

D6(9)               A9/C#        Bm
     Às vezes no silêncio da noite
Em              Em/D          A9/C#  A7
  Eu fico imaginando nós dois
D6(9)                A9/C#       Bm
     Eu fico ali sonhando acordado, juntando
Em            Em/D           A9/C#  A7
  O antes o agora e o depois

[Segunda Parte]

   Bm      F#m7    G7M
E|---------------------------------------------|
B|-----3-------2-------3-------3---------------|
G|-----4-------2-------4-------4---------------|
D|---4---4---2---2---4---4---4---4-------------|
A|-2-------------------------------------------|
E|---------2-------3-------3-------------------|

   Bm      F#m7    Bm/E
E|---------------------------------------------|
B|-----3-------2-------3-------3---------------|
G|-----4-------2-------4-------4---------------|
D|---4---4---2---2---4---4---4---4-------------|
A|-2-------------------------------------------|
E|---------2-------0-------0-------------------|

   Bm      F#m7    G7M
E|---------------------------------------------|
B|-----3-------2-------3-------3---------------|
G|-----4-------2-------4-------4---------------|
D|---4---4---2---2---4---4---4---4-------------|
A|-2-------------------------------------------|
E|---------2-------3-------3-------------------|

Bm                 F#m7         G7M
  Por que você me deixa tão solto?
Bm                  F#m7        Bm/E
  Por que você não cola em mim?
Bm                F#m7       G7M
  Tô me sentindo muito sozinho

[Primeira Parte]

D6(9)                   A9/C#       Bm
     Não sou nem quero ser o seu dono
Em                     Em/D         A9/C#  A7
  É que um carinho às vezes cai bem
D6(9)                    A9/C#      Bm
     Eu tenho os meus desejos e planos secretos
Em               Em/D           A9/C#  A7
  Só abro pra você mais ninguém

[Segunda Parte]

Bm                   F#m7     G7M
  Porque você me esquece e some
Bm                   F#m7          Bm/E
  E se eu me interessar por alguém
Bm               F#m7          G7M
  E se ela de repente me ganha

[Refrão]

   D6(9)   A9/C#   G7M
E|-----0-------0------------------------------|
B|-----0-------0-------3-------3--------------|
G|---2---2---2---2-----4-------4--------------|
D|-0-----------------4---4---4---4------------|
A|---------4----------------------------------|
E|-----------------3-------3------------------|

   Em      Em/D    C
E|-----0-------0-------0-------0--------------|
B|-----0-------0-------1-------1--------------|
G|---0---0---0---0---0---0---0---0------------|
D|---------0----------------------------------|
A|-----------------3-------3------------------|
E|-0------------------------------------------|

   D6(9)   A9/C#   Bm
E|-----0-------0------------------------------|
B|-----0-------0-------3-------3--------------|
G|---2---2---2---2-----4-------4--------------|
D|-0-----------------4---4---4---4------------|
A|---------4-------2-------2------------------|
E|--------------------------------------------|

   G7M     G/A      D6(9)
E|----------------------0---------------------|
B|-----3-------0--------0---------------------|
G|-----4-------0------2---2-------------------|
D|---4---4---0---0--0-------------------------|
A|---------0----------------------------------|
E|-3------------------------------------------|

  D6(9)                  A9/C#            G7M
Quando a gente gosta é claro que a gente cuida
 Em              Em/D                 C
Fala que me ama só que é da boca pra fora
D6(9)             A9/C#          Bm    G7M
Ou você me engana ou não está madura
             G7M
Iê iê iê iê iê
G/A              D6(9)
Onde está você agora

  D6(9)                  A9/C#            G7M
Quando a gente gosta é claro que a gente cuida
 Em              Em/D                 C
Fala que me ama só que é da boca pra fora
D6(9)             A9/C#          Bm    G7M
Ou você me engana ou não está madura
             G7M
Iê iê iê iê iê
G/A              D6(9)
Onde está você agora
Composição de Peninha
Colaboración y revision:
  • Thiago Almeida
  • Alexandre Aguiar
9.519 reproducciones
    • ½ Tono
    • A
    • Bb
    • B
    • C
    • Db
    • D
    • Eb
    • E
    • F
    • F#
    • G
    • Ab
  • Adicionar à lista

    0 comentarios

    Ver todos os comentários
    00:00 / 00:00
    outros vídeos desta música
    repetir qualidade Automático
    Outros vídeos desta música
    00:00 / 00:00
    Automático
    Capítulos
    • Início
    • Acordes da introdução
    • Tocando a introdução
    • Ensinando o dedilhado da música
    • Acordes da primeira parte
    • Tocando primeir parte
    • Ensinando dedilhado da primeira parte
    • Acordes da segunda parte
    • Tocando segunda parte
    • Ensinando dedilhado da segunda parte
    • Acordes do refrão
    • Tocando o refrão
    • Dicas do dedilhado do refrão
    • Encerramento
    OK