Cifra Club

Aprenda

Sozinho

Caetano Veloso

Tab de bajo: Principal
Intro só violão

Primeira Parte:

E|-----------------------------|
A|--5---0---2--22--7---5--0----|
D|-----------------------------|
G|-----------------------------|

Jun-tan-do: |A--2-0-2----------|

Passagem 1

E|---------2--3---------------|
A|-0-1-2----------------------|
D|----------------------------|
G|----------------------------|

Segunda Parte:

E|-----------------------------|
A|--5---0---2--22--7---5--0----|
D|-----------------------------|
G|-----------------------------|

Se-cre-tos: |A--2-0-2----------|

Passagem 1

E|---------2--3---------------|
A|-0-1-2----------------------|
D|----------------------------|
G|----------------------------|

Refrão:

E|-----------------------------|
A|--5---0---2--22--7---5--3----|
D|-----------------------------|
G|-----------------------------|

Passagem 2

E|-3--------------------------|
A|-------5--------------------|
D|----------------------------|
G|----------------------------|

Refrão:

E|-----------------------------|
A|--5---0---2--22--7---5--3----|
D|-----------------------------|
G|-----------------------------|
Composição de Peninha
Colaboración y revision:
  • Luiz Rodrigues
116 reproducciones

0 comentarios

Ver todos os comentários
00:00 / 00:00
outros vídeos desta música
repetir qualidade Automático
Outros vídeos desta música
00:00 / 00:00
Automático
OK