Cifra Club

À Sua Maneira

Capital Inicial

Tab de bajo: Principal
[Intro]

G|--------------------------------------------|
D|--------------------------------------------|
A|-2-2-----5-5---------2-2-----5-5----5h7-5---|
E|-----3-3-----5-5-2-5-----3-3------5---------|

G|---4-------------------4--------------------|
D|-------------------------------------5------|
A|-2-------5-5---------2-------5-5-5h7--------|
E|-----3-3-----5-5-2-5-----3-3----------------|

[Primeira Parte]

Parte 1 de 2
G|--------------------------------------------|
D|--------------------------------------------|
A|-2-----5-----2-----5------------------------|
E|---3-3---5-5---3-3---5-5-2-5----------------|

G|--------------------------------------------|
D|-------------5\--------5-4------------------|
A|-2-----5-7h9---------------5--7-5-4-0-------|
E|---3-3----------7-3-3-----------------------|

Parte 2 de 2
G|--------------------------------------------|
D|--------------------------------------------|
A|-2------5-5---------2-----5--4-5-7-7-5-4----|
E|---3-3------5-5-2-5---3-3-------------------|

G|--------------------------------------------|
D|-----------------------------5-4------------|
A|-2-2-----5-5---------2-2---------5--7-5-4-0-|
E|-----3-3-----5-5-2-5-----3-3----------------|

[Refrão]

Parte 1

G|--------------------------------------------|
D|--------------------------------------------|
A|-2-2-----5-5---------2-2-----5-5-7-7-5-4----|
E|-----3-3-----5-5-2-5-----3-3----------------|

G|--------------------------------------------|
D|-----------------------------4--------------|
A|-2-2-----5-5---------2-2-------5-7-5-4-0----|
E|-----3-3-----5-5-2-5-----3-3----------------|

[Passagem]

G|--------------------------------------------|
D|--------------------------------------------|
A|-2-----5---------2-----5-5/7-7-5-4----------|
E|---3-3---5-5-2-5---3-3----------------------|

G|--------------------------------------------|
D|-----------------------------7h9-9----------|
A|-2-----5---------2-----5/7-9----------------|
E|---3-3---5-5-2-5---3-3----------------------|

[Segunda Parte]

G|--------------------------------------------|
D|--------------------------------------------|
A|-2------5---------2-----5----------2--------|
E|---3-3----5-5-2-5---3-3----5-5-2-5---3-3----|

G|--------------------------------------------|
D|-----------------5-4------------------------|
A|-5---------2---------5--7-5-4-0-------------|
E|---5-5-2-5---3-3----------------------------|

[Refrão]

G|--------------------------------------------|
D|--------------------------------------------|
A|-2-2-----5-5---------2-2-----5-5-7-7-5-4----|
E|-----3-3-----5-5-2-5-----3-3----------------|

G|--------------------------------------------|
D|-----------------------------9-7------------|
A|-2-2-----5-5---------2-2---------5-7-5-4-0--|
E|-----3-3-----5-5-2-5-----3-3----------------|

G|--------------------------------------------|
D|---------------------------5-5-h7-7---------|
A|-2-----5---------2-----5h7------------------|
E|---3-3---5-5-2-5---3-3----------------------|

G|--------------------------------------------|
D|--------------------------------------------|
A|-2-----5---------2-----5--5h7-7-5-4---------|
E|---3-3---5-5-2-5---3-3--------------7-------|

[Terceira Parte]

Parte 1 de 2

G|------11------------------------------------|
D|-2/10------9-7------------------------------|
A|---------------5-7-5-4-0--------------------|
E|--------------------------------------------|

Parte 2 de 2

G|--------------------------------------------|
D|--------------------------------------5-5---|
A|-2-2-----5-5---------2-2-----5-5--7h9-----7-|
E|-----3-3-----5-5-2-5-----3-3----------------|

G|--------------------------------------------|
D|-----------------------------5-4------------|
A|-2-2-----5-5---------2-2---------5--7-5-4-0-|
E|-----3-3-----5-5-2-5-----3-3----------------|

[Refrão]

Parte 1 de 4
G|--------------------------------------------|
D|--------------------------------------------|
A|-2-2-----5-5---------2-2-----5-5-7-7-5-4----|
E|-----3-3-----5-5-2-5-----3-3----------------|

G|--------------------------------------------|
D|-----------------------------------5-5-h7-7-|
A|-2-2-----5-5---------2-2-----5h7-7----------|
E|-----3-3-----5-5-2-5-----3-3----------------|

Parte 2 de 4
G|--------------------------------------------|
D|--------------------------------------------|
A|-2-2-----5-5---------2-2-----5-5-7-7-5-4----|
E|-----3-3-----5-5-2-5-----3-3----------------|

G|--------------------------------------------|
D|-----------------------------5-4------------|
A|-2-2-----5-5---------2-2---------5--7-5-4-0-|
E|-----3-3-----5-5-2-5-----3-3----------------|

Parte 3 de 4
G|--------------------------------------------|
D|---------5-4--------------------------------|
A|-2-2---------5--7-5-4-0---------------------|
E|-----3-3------------------------------------|

Parte 4 de 4
G|--------------------------------------------|
D|---------7-5--------------------------------|
A|-2-2---------5--7-5-4-0-2-------------------|
E|-----3-3------------------------------------|

[Final]

Parte 1 de 2
G|--------------------------------------------|
D|-7/9-9-9------------------------------------|
A|--------------------------------------------|
E|--------------------------------------------|

G|--------------------------------------------|
D|--------------------------------------------|
A|-2------5---------2-----5-h7-7-7-5-4--------|
E|---3-3----5-5-2-5---3-3---------------------|

Parte 2 de 2
G|--------------------------------------------|
D|------------------------------7-7-h9--9-----|
A|-2------5---------2-----5/7-9---------------|
E|---3-3----5-5-2-5---3-3---------------------|
Composición de Dinho Ouro Preto / Gustavo Cerati / Héctor Bosio
241 vistas

0 comentarios

Ver todos los comentarios
00:00 / 00:00
Outros vídeos desta música
Repetir Calidad Automático
Outros vídeos desta música
00:00 / 00:00
Automático
Capítulos
  • Tocando a música
  • Dicas Iniciais / Equipamentos
  • Introdução
  • Primeira Parte - Parte 1 de 2
  • Primeira Parte - Parte 2 de 2
  • Refrão
  • Introdução 2
  • Segunda Parte
  • Refrão
  • Solo de Guitarra
  • Terceira Parte - Parte 1 de 2
  • Terceira Parte - Parte 2 de 2
  • Refrão 3 - Parte 1 de 4
  • Refrão 3 - Parte 2 de 4
  • Refrão 3 - Parte 3 de 4
  • Refrão 3 - Parte 4 de 4
  • Quarta Parte - Parte 1 de 2
  • Quarta Parte - Parte 2 de 2
  • Encerramento
  • Ficha Técnica
OK