Cifra Club

À Sua Maneira

Capital Inicial

Cifrado: Violao-completa (guitarra y guitarra eléctrica)
tono: Bm
[Intro] Bm  G  D  A
        Bm  G  D  A
        Bm  G  D  A
        Bm  G  D  A

[Primeira Parte]

Bm        G  D
Ela dormiu
      A             Bm   G  D  A
No calor dos meus braços
  Bm         G         D
E eu acordei    sem saber
   A       Bm  G  D  A
Se era um sonho
   Bm            G  D
Algum tempo atrás
    A           Bm  G  D  A
Pensei em te dizer
        Bm     G
Que eu nunca caí
     D        A          Bm  G  D  A
Nas suas armadilhas de amor

[Refrão]

 Bm          G  D
Naquele amor
   A     Bm   G  D  A
À sua maneira
    Bm               G  D
Perdendo o meu tempo
   A       Bm   G  D  A
A noite inteira

[Solo] Bm  G  D  A
       Bm  G  D  A
       Bm  G  D  A
       Bm  G  D  A

Parte 1 de 4
E|------------------------------------------|
B|------------------------------------------|
G|------------------------------------------|
D|------------------------------------------|
A|-/2-4-4h5~--5-5-4\2-------0-0h2--2p0h2p0--|
E|--------------------5--/2-----------------|

Parte 2 de 4
E|------------------------------------------|
B|------------------------------------------|
G|-x-x------------------7----7-7-7\---------|
D|-x-x------------------7----7-7-7\---------|
A|-x-x-2-4-5--7-7/9~--9----9----------------|
E|------------------------------------------|

Parte 3 de 4
E|------------------------------------------|
B|-x-x-----------x-x---------x-x------------|
G|-x-x------7-7--x-x------7--x-x-7--7-7-----|
D|-x-x------7-7--x-x------7--x-x-7--7-7-----|
A|------7/9-----------7/9-------------------|
E|------------------------------------------|

Parte 4 de 4
E|------------------------------------------|
B|------------------------------------------|
G|------------------------------------------|
D|------------------------------------------|
A|-9\7p5--7b8r7p5---------------------------|
E|-----------------7~-----------------------|

[Segunda Parte]

 Bm          G  D
Não mandarei
 A         Bm   G  D  A
Cinzas de rosas
     Bm             G  D
Nem penso em contar
    A         Bm   G  D  A
Os nossos segredos

[Refrão]

 Bm          G  D
Naquele amor
   A     Bm   G  D  A
À sua maneira
    Bm               G  D
Perdendo o meu tempo
   A       Bm   G  D  A
A noite inteira

[Solo] Bm  G  D  A
       Bm  G  D  A
       Bm  G  D  A
       Bm  G  D  A

Parte 1 de 4
E|-5/7---5~-----7---5~-----7---5~-----------|
B|-----7-5~-7-----7-5~-7-----7-5~-----------|
G|------------------------------------------|
D|------------------------------------------|
A|------------------------------------------|
E|------------------------------------------|

Parte 2 de 4
E|------------------------------------------|
B|-3/5~--3~--3h5~--3--3--2h3p2--------------|
G|------------------------------------------|
D|------------------------------------------|
A|------------------------------------------|
E|------------------------------------------|

Parte 3 de 4
E|-10/12-12-10-10--10h12--10-10--9h10-9-----|
B|--------------------------------------10--|
G|------------------------------------------|
D|------------------------------------------|
A|------------------------------------------|
E|------------------------------------------|

Parte 4 de 4
E|------------------------------------------|
B|-10/12-12-12-12\7-7-7-7/10-10-10-10\5-5-5-|
G|------------------------------------------|
D|------------------------------------------|
A|------------------------------------------|
E|------------------------------------------|

E|------------------------------------------|
B|-5/7-7-7-7\--2-2-2h3-2h3------------------|
G|-------------------------4~---------------|
D|------------------------------------------|
A|------------------------------------------|
E|------------------------------------------|

[Primeira Parte]

Bm
Ela dormiu

No calor dos meus braços

E eu acordei sem saber
               G  D  A
Se era um sonho
   Bm            G  D
Algum tempo atrás
    A           Bm  G  D  A
Pensei em te dizer
        Bm     G
Que eu nunca caí
     D        A          Bm  G  D  A
Nas suas armadilhas de amor

[Refrão]

 Bm          G  D
Naquele amor
   A     Bm   G  D  A
À sua maneira

    Bm               G  D
Perdendo o meu tempo
   A       Bm   G  D  A
A noite inteira

 Bm          G  D
Naquele amor
   A     Bm   G  D  A
À sua maneira
    Bm               G  D
Perdendo o meu tempo
   A       Bm   G  D  A
A noite inteira
           Bm   G  D  A
A noite inteira
           Bm   G  D  A
A noite inteira
           Bm   G  D  A
A noite inteira

Bm
Ela dormiu

No calor dos meus braços
00:00 / 00:00
Otros videos de esta canción
Repetir
Otros videos de esta canción
Composición de Dinho Ouro Preto / Gustavo Cerati / Héctor Bosio
Colaboración y revisión:
  • Gustavo Cunha
  • Thiago Almeida
  • Pedro Cruz
250 vistas
  • Simplificar cifrado
    • ½ Tono
    • Am
    • Bbm
    • Bm
    • Cm
    • C#m
    • Dm
    • Ebm
    • Em
    • Fm
    • F#m
    • Gm
    • G#m
  • Agregar a la lista

    0 comentarios

    Ver todos los comentarios
    00:00 / 00:00
    Capítulos
    • Início
    • Tocando a Música
    • Acordes da Música
    • Tocando Intro, Refrão e Primeira Parte
    • Ensinando Ritmo da Música
    • Tocando Solo
    • Ensinando o Solo
    • Encerramento
    OK