Notificações Amigos pendentes

      Century

      Lover Why

      642 reproducciones
      Tono: E
      (intro) C#m
      
      
       (riff 1) C#m
      E|---------------------------------|
      B|-5---5---5---5---5---5---5---5---|
      G|---6---6---6---6---6---6---6---6-|
      D|---------------------------------|
      A|---------------------------------|
      E|---------------------------------|
      
      
       (riff 2) G#m
      E|---------------------------------|
      B|---------------------------------|
      G|---------------------------------|
      D|-6---6---6---6---6---6---6---6---|
      A|---6---6---6---6---6---6---6---6-|
      E|---------------------------------|
      
      
       (riff 3) F#m
      E|---------------------------------|
      B|---------------------------------|
      G|---------------------------------|
      D|-4---4---4---4---4---4---4---4---|
      A|---4---4---4---4---4---4---4---4-|
      E|---------------------------------|
      
      
       (riff 4) A
      E|---------------------------------|
      B|-2---2---2---2---2---2---2---2---|
      G|---2---2---2---2---2---2---2---2-|
      D|---------------------------------|
      A|---------------------------------|
      E|---------------------------------|
      
      
       (riff 5) B
      E|---------------------------------|
      B|-4---4---4---4---4---4---4---4---|
      G|---4---4---4---4---4---4---4---4-|
      D|---------------------------------|
      A|---------------------------------|
      E|---------------------------------|
      
      
       (riff 6) E
      E|---------------------------------|
      B|---------------------------------|
      G|-1---1---1-----------1-----------|
      D|---2---2---(-6p4-6-)---2---------|
      A|---------------------------------|
      E|---------------------------------|
      
      
                 C#m
      A sign of time
                                G#m
      I lost my life, forgot to die
                                 F#m
      Like any man, a frightened guy
                             A
      I'm keeping memories inside
                 B
      Of wounded love
      
             C#m
      But I know
                                 G#m
      I'm more than sad and more today
                                   F#m
      I'm eating words too hard to say
                             A
      A single tear and I'm away
                B
      Away and gone
      
      
              E
      I need you D|-6p4-6-|
      
                                    G#m
      So far from hell, so far from you
                                         F#m
      'Cause heaven's hard and black and gray
                                 A
      You're just a someone gone away
           B                C#m
      You never said goodbye
      C#m  G#m       F#
          Why, lover why ?
      C#m    G#m         F#
          Why do flowers die ?
      C#m  G#m       A     B
          Why, lover why ?
      
      (teclado)
      
      
           C#m  G#m      F#m
      E|-------------------|
      B|----5----4--2------|
      G|--------------4--3-| (2x)
      D|-------------------|
      A|-------------------|
      E|-------------------|
      
      
      (solo)
      
      
      E|----------|-------------------|----------------------|
      B|-14-12h14-|-12----12h14-12h14-|-------17-14-17p14----|
      G|----------|----13-------------|-11-13-------------16-|
      
      
      E|---------|-------------------------|
      B|---------|-------------------------|
      G|-14---13-|-13-13b14r13-14-14b16r14-|
      
      
      E|-------------------------------|-------------------|
      B|-------------------14----------|-------------------|
      G|-11-13-11-13b14r13----13-11-13-|-11-13-11-13b14r13-|
      
      
      E|----------|-------------|-------------|
      B|-12-------|-17-14----14-|-17-14----14-|
      G|----11-13-|-------16----|-------16----|
      
      
      E|--------------------------------------------------------|
      B|-12-999-14-12-12-12-16-14-14-14-17-16-16-16-19-17-17-17-|
      G|--------------------------------------------------------|
      
      
      E|----------|-------------|
      B|-19-17-16-|-16h17p16----|
      G|----------|----------18-|
      
      
      E|-------------------------------|-------------------|
      B|-------------------14----------|-------------------|
      G|-11-13-11-13b14r13----13-11-13-|-11-13-11-13b14r13-|
      
      
           C#m
      Everytime
                                      G#m
      I hear your voice, you heard my name
                                  F#m
      You built the fire, wet the flame
                                      A
      A swim for life, can't take the rain
                 B
      No turning back
      
             E
      I need you
                                    G#m
      So far from hell, so far from you
                                         F#
      'Cause heaven's hard and black and gray
                                 A
      You're just a someone gone away
          B                  C#m
      You never said goodbye
      C#m   G#m      F#m
          Why, lover why ?
      
      
      E|-------|----------------|
      B|-19-19-|-14-17-14----14-|
      G|-------|----------16----|
      
      
      C#m     G#m        F#m
          Why do flowers die ?
      
      
      E|------------------------|
      B|------------------------|
      G|----11-13-13b14-13b14---|
      D|-14---------------------|
      
      
      C#m   G#m      A        B
          Why, lover why ? Ah,ah
      
      
      E|------------|------------------------|
      B|-12---17-19-|-19-17-12-12---12-12/14-|
      G|------------|------------------------|
      D|------------|------------------------|
      
        Composición: Jean Louis Milford - Paul Yves - John WesleyColaboración y revision:
        • Thyerrí

        Comentarios 1

        140 .
        • irineu irineu: Em 25/10/2014 22:03

          uma das melhores que eu ja ouvi.

        140 cancelar

        ¿conseguiste tocar?

        covers

        ¡Grave un vídeo tocando Lover Why y envie para nosotros!

        Ex.: http://www.youtube.com/watch?v=0IvSvIwGdwk
        ver cover de otras canciones »
        0:00 / 0:00

        Capitulos

          1 versão de guitarra dificuldad reproducciones contribuición y correción
          1 versão de guitarra eléctrica dificuldad reproducciones contribuición y correción
          1 versão de cavaco dificuldad reproducciones contribuición y correción
          1 versão de teclado dificuldad reproducciones contribuición y correción
          play/pausefechar subir/bajar velocidad
          6ª cuerda E5ª cuerda A4ª cuerda D3ª cuerda G2ª cuerda B1ª cuerda E
            acordes
            publicidad
            cerrar
            ok