Cifra Club

A Gente Voltou

Clarice Falcão

Cifrado: Principal (guitarra y guitarra eléctrica)
tono: A
[Intro]
                       A                       D

E|---0----0------0----0------2----2------2----2---|
B|---2----2------2----2------3----3------3----3---|
G|---2----2------2----2------2----2------2----2---|
D|-------------------------0-----------0----------|
A|-0-----------0----------------------------------|
E|------------------------------------------------|

                      Bm                      E                 
E|---2----2------2----2------0----0------0----0---|
B|---3----3------3----3------0----0------0----0---|
G|---4----4------4----4------1----1------1----1---|
D|------------------------------------------------|
A|-2-----------2-----------2-----------2----------|
E|------------------------------------------------|

     F#m
E|---2----2------2----2---------------------------|
B|---2----2------2----2---------------------------|
G|---2----2------2----2---------------------------|
D|------------------------------------------------|
A|-4-----------4----------------------------------|
E|------------------------------------------------|

 A                  D
Polícias abaixem as armas
             A                   D
E troquem carícias que a gente voltou
   A                  D                A
Bandidos de gorro não subam o morro, relaxem
              D
Que a gente voltou

Bm                 E
Mas e se a gente separa
Bm               F#m
Se a gente para e se parará
Bm                  E
Para que se a gente para
           A
O mundo acabou

A             D
Médicos nas UTIs
                  A
Larguem seus bisturis
              D
Que a gente voltou

  A                 D
Pacientes à beira da morte
           A
Reparem que sorte
            D
A gente voltou

Bm                 E
Mas e se a gente separa
Bm               F#m
Se a gente para e se parará
Bm                  E
Para que se a gente para
           A
O mundo acabou

 A                     D
Você que está no Titanic
              A
Parou o chilique
              D
Que a gente voltou

   A                D
Não entra na bad, Romeu
          A
Julieta morreu
              D
Mas a gente voltou

Bm                 E
Mas e se a gente separa
Bm               F#m
Se a gente para e se parará
Bm                  E
Para que se a gente para
           A
O mundo acabou

Bm                  E
Para que se a gente para o mundo
A                   D
Para que se a gente para
Bm                  E
Para que se a gente para o mundo
A                   D
Para que se a gente para
Bm                  E
Para que se a gente para o mundo
A
Para
00:00 / 00:00
Otros videos de esta canción
Repetir
Otros videos de esta canción
Composición de Clarice Falcão
1.282 vistas
    • ½ Tono
    • A
    • Bb
    • B
    • C
    • Db
    • D
    • Eb
    • E
    • F
    • F#
    • G
    • Ab
  • Agregar a la lista

    0 comentarios

    Ver todos los comentarios

    ¿Lograste tocar?

    112 Tocaron 8 Aún no

    ¡Graba un video tocando A Gente Voltou y envíanoslo!

    00:00 / 00:00
    OK