Cifra Club

Paracetamol

Declan Mckenna

Cifrado: Principal (guitarra y guitarra eléctrica)
tono: G
Intro:
G   G/F#
C  C/B  C
Am  C   G
G   G/F#
C  C/B C
Em G
C C/B C

Verse:
          G                    G/F#               C C/B C
There's a boy, fifteen, with a gun in his hand
        Am             C                     G   G/F#  G
And the people all say he should be hanged
          G                                G/F#               C C/B C
And they ask him for his motive, but they don't understand
         Em             Am            G       G/F#    G
Why they love like they do, like they do   
          G                    G/F#               C C/B C
There's a girl, fifteen, with her head in a noose
        Am                          C                     G   G/F#  G
Because she's damned to live or she's damned to choose
          G               G/F#               C C/B C
And the animals walked in two's by two's
         Em             Am            G       G/F#     G
Showing love, like they do, like they do
            G                    G/F#               C C/B C
There's a girl, fifteen, although she isn't sure
        Am                        C                     G   G/F#  G
Well how the hell could you want anything more?
          G           G/F#               C C/B C
A beautiful, perfect, immaculate whore
        Em             Am            G       G/F#    G
I'm in love, love with you, love with you

Chorus:
       G         G/F#             G/F                 Em             Am          Em             F
E|------------------------------------------------------------------------------------------------|
B|----0------0-------0--------0--------0-------0-----3---5----------------------------------------|
G|---------------------------------------------------------------5--4--2--4--5--7--4--2--4--5--2~~|
D|-5-----5------4--------4--------3--------3---------2--------------------------------------------|
A|------------------------------------------------------------------------------------------------|
E|------------------------------------------------------------------------------------------------|

                     G           Em
Oh, won't you let me finish
C                   G            Em
   You drive me insane
C                          G            Em
   The world will keep on turning
C                        Am           C
   Even if we're not the same
            G
Don't come on to me, come on to me

     G                      C                       Am                       G
E|-8--7--5--3--7--5--3--2--5--3--2--0--3--2--0-----2--0--------0-----------------------|
B|----------------------------------------------3--------3--1-----3--1--0--------------|
G|-------------------------------------------------------------------------2h4-2h4-2-00|
D|-------------------------------------------------------------------------------------|
A|-------------------------------------------------------------------------------------|
E|-------------------------------------------------------------------------------------|

Verse 2:
          G                    G/F#               C C/B C
There's a boy, fifteen, turning into a man
        Am             C                     G   G/F#  G
But tell me one other thing that he can
          G                        G/F#               C C/B C
Were you forced a smile through a jealous hand?
         Em             Am            G       G/F#    G
Showing love like you do, like you do
          G                    G/F#               C C/B C
There's a boy, fifteen, and he's attempted to sue
        Am             C                     G   G/F#  G
Because he's definetely sure that it's true
          G                        G/F#               C C/B C
And what kind of man, kind of man are you?
         Em             Am            G       G/F#    G
Showing love like you do, like you do

Chorus 2:
     G                        Em                      D                        C
E|----------------------------------------------------------------------------|
B|----------------------------------------------------------------------------|
G|--0--2--4--2--0--2------0--------0------------------------------------------|
D|--------------------4------2--4-----4--2--4--2--4--0--2--4--2--0--2--0--2---|
A|---------------------------------------------------------------------------3|
E|----------------------------------------------------------------------------|

                     G           Em
Oh, won't you let me finish
C                   G            Em
   You drive me insane
C                          G            Em
   The world will keep on turning
C                        Am           C
   Even if we're not the same
            G
Don't come on to me, come on to me

Bridge:

Riff:
E|-10--------------------7-8-7-8-10|
B|---8-8------8-8-8-8-8-8----------|
G|------7---7----------------------|
D|--------9------------------------|
A|---------------------------------|
E|---------------------------------|

G                                                           C
So tell me what's in your mind, so tell me what's in your mind
                  G
And don't forget your paracetamol smile
G                                                         C
So tell me what's in your mind, so tell me what's in your mind
                  G
And don't forget your paracetamol smile
G                        Em                                C
So tell me what's in your mind, so tell me what's in your mind
                  G
And don't forget your, paracetamol, smile
G                          Em                             C
So tell me what's in your mind, so tell me what's in your mind
G      C
ooooo Ahhhh  

Outro:   
        G
You're emotionally challenged
C                         G       Em
    Why do you waste your talent?
C                           G       Em
    The world around you's maddening
C                   G       Em
    Do you have no shame?
       G
Come on to me, come on to me
   G
 oooooooo     ah oo     Repeat till end
Composición de Declan McKenna
Colaboración y revisión:
  • Junior ㅤㅤ
206 vistas
    • ½ Tono
    • A
    • Bb
    • B
    • C
    • Db
    • D
    • Eb
    • E
    • F
    • F#
    • G
    • Ab
  • Agregar a la lista

    0 comentarios

    Ver todos los comentarios

    ¿Lograste tocar?

    2 Tocaron 1 Aún no

    ¡Graba un video tocando Paracetamol y envíanoslo!

    00:00 / 00:00
    Outros vídeos desta música
    Repetir Calidad Automático
    Outros vídeos desta música
    00:00 / 00:00
    Automático
    OK